  0
SECTION
  2
HEADER
  9
$ACADVER
  1
AC1015
  9
$ACADMAINTVER
 70
     6
  9
$DWGCODEPAGE
  3
ANSI_1252
  9
$INSBASE
 10
0.0
 20
0.0
 30
0.0
  9
$EXTMIN
 10
0.0
 20
0.0
 30
0.0
  9
$EXTMAX
 10
11.0
 20
8.5
 30
0.0
  9
$LIMMIN
 10
0.0
 20
0.0
  9
$LIMMAX
 10
11.0
 20
8.5
  9
$ORTHOMODE
 70
     0
  9
$REGENMODE
 70
     1
  9
$FILLMODE
 70
     1
  9
$QTEXTMODE
 70
     0
  9
$MIRRTEXT
 70
     1
  9
$LTSCALE
 40
1.0
  9
$ATTMODE
 70
     1
  9
$TEXTSIZE
 40
0.1377952756
  9
$TRACEWID
 40
0.05
  9
$TEXTSTYLE
  7
Standard
  9
$CLAYER
  8
0
  9
$CELTYPE
  6
ByLayer
  9
$CECOLOR
 62
   256
  9
$CELTSCALE
 40
1.0
  9
$DISPSILH
 70
     0
  9
$DIMSCALE
 40
1.0
  9
$DIMASZ
 40
0.13
  9
$DIMEXO
 40
0.0393700787
  9
$DIMDLI
 40
0.38
  9
$DIMRND
 40
0.0
  9
$DIMDLE
 40
0.0
  9
$DIMEXE
 40
0.0393700787
  9
$DIMTP
 40
0.0
  9
$DIMTM
 40
0.0
  9
$DIMTXT
 40
0.1377952756
  9
$DIMCEN
 40
0.09
  9
$DIMTSZ
 40
0.0
  9
$DIMTOL
 70
     0
  9
$DIMLIM
 70
     0
  9
$DIMTIH
 70
     1
  9
$DIMTOH
 70
     1
  9
$DIMSE1
 70
     0
  9
$DIMSE2
 70
     0
  9
$DIMTAD
 70
     1
  9
$DIMZIN
 70
     0
  9
$DIMBLK
  1

  9
$DIMASO
 70
     1
  9
$DIMSHO
 70
     1
  9
$DIMPOST
  1

  9
$DIMAPOST
  1

  9
$DIMALT
 70
     0
  9
$DIMALTD
 70
     2
  9
$DIMALTF
 40
25.4
  9
$DIMLFAC
 40
1.0
  9
$DIMTOFL
 70
     0
  9
$DIMTVP
 40
0.0
  9
$DIMTIX
 70
     0
  9
$DIMSOXD
 70
     0
  9
$DIMSAH
 70
     0
  9
$DIMBLK1
  1

  9
$DIMBLK2
  1

  9
$DIMSTYLE
  2
Standard
  9
$DIMCLRD
 70
     0
  9
$DIMCLRE
 70
     0
  9
$DIMCLRT
 70
     0
  9
$DIMTFAC
 40
1.0
  9
$DIMGAP
 40
0.06
  9
$DIMJUST
 70
     0
  9
$DIMSD1
 70
     0
  9
$DIMSD2
 70
     0
  9
$DIMTOLJ
 70
     1
  9
$DIMTZIN
 70
     0
  9
$DIMALTZ
 70
     0
  9
$DIMALTTZ
 70
     0
  9
$DIMUPT
 70
     0
  9
$DIMDEC
 70
     3
  9
$DIMTDEC
 70
     3
  9
$DIMALTU
 70
     2
  9
$DIMALTTD
 70
     2
  9
$DIMTXSTY
  7
Standard
  9
$DIMAUNIT
 70
     0
  9
$DIMADEC
 70
     2
  9
$DIMALTRND
 40
0.0
  9
$DIMAZIN
 70
     0
  9
$DIMDSEP
 70
    46
  9
$DIMATFIT
 70
     3
  9
$DIMFRAC
 70
     0
  9
$DIMLDRBLK
  1

  9
$DIMLUNIT
 70
     2
  9
$DIMLWD
 70
    -2
  9
$DIMLWE
 70
    -2
  9
$DIMTMOVE
 70
     0
  9
$LUNITS
 70
     2
  9
$LUPREC
 70
     2
  9
$SKETCHINC
 40
0.1
  9
$FILLETRAD
 40
0.5
  9
$AUNITS
 70
     0
  9
$AUPREC
 70
     2
  9
$MENU
  1
.
  9
$ELEVATION
 40
0.0
  9
$PELEVATION
 40
0.0
  9
$THICKNESS
 40
0.0
  9
$LIMCHECK
 70
     0
  9
$CHAMFERA
 40
0.5
  9
$CHAMFERB
 40
0.5
  9
$CHAMFERC
 40
1.0
  9
$CHAMFERD
 40
0.0
  9
$SKPOLY
 70
     0
  9
$TDCREATE
 40
2455659.384870347
  9
$TDUCREATE
 40
2455659.593203681
  9
$TDUPDATE
 40
2455659.384870359
  9
$TDUUPDATE
 40
2455659.593203692
  9
$TDINDWG
 40
0.0000000116
  9
$TDUSRTIMER
 40
0.0000000116
  9
$USRTIMER
 70
     1
  9
$ANGBASE
 50
0.0
  9
$ANGDIR
 70
     0
  9
$PDMODE
 70
     0
  9
$PDSIZE
 40
-1.0
  9
$PLINEWID
 40
0.0
  9
$SPLFRAME
 70
     0
  9
$SPLINETYPE
 70
     6
  9
$SPLINESEGS
 70
     8
  9
$HANDSEED
  5
2F4
  9
$SURFTAB1
 70
     6
  9
$SURFTAB2
 70
     6
  9
$SURFTYPE
 70
     6
  9
$SURFU
 70
     6
  9
$SURFV
 70
     6
  9
$UCSBASE
  2

  9
$UCSNAME
  2

  9
$UCSORG
 10
0.0
 20
0.0
 30
0.0
  9
$UCSXDIR
 10
1.0
 20
0.0
 30
0.0
  9
$UCSYDIR
 10
0.0
 20
1.0
 30
0.0
  9
$UCSORTHOREF
  2

  9
$UCSORTHOVIEW
 70
     0
  9
$UCSORGTOP
 10
0.0
 20
0.0
 30
0.0
  9
$UCSORGBOTTOM
 10
0.0
 20
0.0
 30
0.0
  9
$UCSORGLEFT
 10
0.0
 20
0.0
 30
0.0
  9
$UCSORGRIGHT
 10
0.0
 20
0.0
 30
0.0
  9
$UCSORGFRONT
 10
0.0
 20
0.0
 30
0.0
  9
$UCSORGBACK
 10
0.0
 20
0.0
 30
0.0
  9
$PUCSBASE
  2

  9
$PUCSNAME
  2

  9
$PUCSORG
 10
0.0
 20
0.0
 30
0.0
  9
$PUCSXDIR
 10
1.0
 20
0.0
 30
0.0
  9
$PUCSYDIR
 10
0.0
 20
1.0
 30
0.0
  9
$PUCSORTHOREF
  2

  9
$PUCSORTHOVIEW
 70
     0
  9
$PUCSORGTOP
 10
0.0
 20
0.0
 30
0.0
  9
$PUCSORGBOTTOM
 10
0.0
 20
0.0
 30
0.0
  9
$PUCSORGLEFT
 10
0.0
 20
0.0
 30
0.0
  9
$PUCSORGRIGHT
 10
0.0
 20
0.0
 30
0.0
  9
$PUCSORGFRONT
 10
0.0
 20
0.0
 30
0.0
  9
$PUCSORGBACK
 10
0.0
 20
0.0
 30
0.0
  9
$USERI1
 70
     0
  9
$USERI2
 70
     0
  9
$USERI3
 70
     0
  9
$USERI4
 70
     0
  9
$USERI5
 70
     0
  9
$USERR1
 40
0.0
  9
$USERR2
 40
0.0
  9
$USERR3
 40
0.0
  9
$USERR4
 40
0.0
  9
$USERR5
 40
0.0
  9
$WORLDVIEW
 70
     1
  9
$SHADEDGE
 70
     3
  9
$SHADEDIF
 70
    70
  9
$TILEMODE
 70
     1
  9
$MAXACTVP
 70
    64
  9
$PINSBASE
 10
0.0
 20
0.0
 30
0.0
  9
$PLIMCHECK
 70
     0
  9
$PEXTMIN
 10
1.0000000000E+20
 20
1.0000000000E+20
 30
1.0000000000E+20
  9
$PEXTMAX
 10
-1.0000000000E+20
 20
-1.0000000000E+20
 30
-1.0000000000E+20
  9
$PLIMMIN
 10
0.0
 20
0.0
  9
$PLIMMAX
 10
12.0
 20
9.0
  9
$UNITMODE
 70
     0
  9
$VISRETAIN
 70
     1
  9
$PLINEGEN
 70
     0
  9
$PSLTSCALE
 70
     1
  9
$TREEDEPTH
 70
  3020
  9
$CMLSTYLE
  2
Standard
  9
$CMLJUST
 70
     0
  9
$CMLSCALE
 40
1.0
  9
$PROXYGRAPHICS
 70
     1
  9
$MEASUREMENT
 70
     0
  9
$CELWEIGHT
370
    -1
  9
$ENDCAPS
280
     0
  9
$JOINSTYLE
280
     0
  9
$LWDISPLAY
290
     1
  9
$INSUNITS
 70
     1
  9
$HYPERLINKBASE
  1

  9
$STYLESHEET
  1

  9
$XEDIT
290
     1
  9
$CEPSNTYPE
380
     0
  9
$PSTYLEMODE
290
     1
  9
$FINGERPRINTGUID
  2
{A6AA0D94-00DB-4241-88BA-E3044C58482A}
  9
$VERSIONGUID
  2
{FAEB1C32-E019-11D5-929B-00C0DF256EC4}
  9
$EXTNAMES
290
     1
  9
$PSVPSCALE
 40
0.0
  9
$OLESTARTUP
290
     0
  0
ENDSEC
  0
SECTION
  2
CLASSES
  0
CLASS
  1
ACDBDICTIONARYWDFLT
  2
AcDbDictionaryWithDefault
  3
ObjectDBX Classes
 90
        0
280
     0
281
     0
  0
CLASS
  1
VISUALSTYLE
  2
AcDbVisualStyle
  3
ObjectDBX Classes
 90
     4095
280
     0
281
     0
  0
CLASS
  1
MATERIAL
  2
AcDbMaterial
  3
ObjectDBX Classes
 90
     1153
280
     0
281
     0
  0
CLASS
  1
ACDBPLACEHOLDER
  2
AcDbPlaceHolder
  3
ObjectDBX Classes
 90
        0
280
     0
281
     0
  0
CLASS
  1
LAYOUT
  2
AcDbLayout
  3
ObjectDBX Classes
 90
        0
280
     0
281
     0
  0
ENDSEC
  0
SECTION
  2
TABLES
  0
TABLE
  2
VPORT
  5
8
330
0
100
AcDbSymbolTable
 70
     1
  0
VPORT
  5
29
330
8
100
AcDbSymbolTableRecord
100
AcDbViewportTableRecord
  2
*Active
 70
     0
 10
0.0
 20
0.0
 11
1.0
 21
1.0
 12
5.5
 22
4.25
 13
0.0
 23
0.0
 14
0.5
 24
0.5
 15
0.5
 25
0.5
 16
0.0
 26
0.0
 36
1.0
 17
0.0
 27
0.0
 37
0.0
 40
8.5
 41
1.2941176471
 42
50.0
 43
0.0
 44
0.0
 50
0.0
 51
0.0
 71
     0
 72
  2000
 73
     1
 74
     3
 75
     0
 76
     0
 77
     0
 78
     0
281
     0
 65
     1
110
0.0
120
0.0
130
0.0
111
1.0
121
0.0
131
0.0
112
0.0
122
1.0
132
0.0
 79
     0
146
0.0
  0
ENDTAB
  0
TABLE
  2
LTYPE
  5
5
330
0
100
AcDbSymbolTable
 70
     6
  0
LTYPE
  5
14
330
5
100
AcDbSymbolTableRecord
100
AcDbLinetypeTableRecord
  2
ByBlock
 70
     0
  3

 72
    65
 73
     0
 40
0.0
  0
LTYPE
  5
15
330
5
100
AcDbSymbolTableRecord
100
AcDbLinetypeTableRecord
  2
ByLayer
 70
     0
  3

 72
    65
 73
     0
 40
0.0
  0
LTYPE
  5
16
330
5
100
AcDbSymbolTableRecord
100
AcDbLinetypeTableRecord
  2
Continuous
 70
     0
  3
Solid line
 72
    65
 73
     0
 40
0.0
  0
LTYPE
  5
3F
330
5
100
AcDbSymbolTableRecord
100
AcDbLinetypeTableRecord
  2
HIDDEN
 70
     0
  3
Hidden __ __ __ __ __ __ __ __ __ __ __ __ __ __
 72
    65
 73
     2
 40
0.075
 49
0.05
 74
     0
 49
-0.025
 74
     0
  0
LTYPE
  5
40
330
5
100
AcDbSymbolTableRecord
100
AcDbLinetypeTableRecord
  2
PHANTOM
 70
     0
  3
Phantom ______  __  __  ______  __  __  ______
 72
    65
 73
     6
 40
0.5
 49
0.25
 74
     0
 49
-0.05
 74
     0
 49
0.05
 74
     0
 49
-0.05
 74
     0
 49
0.05
 74
     0
 49
-0.05
 74
     0
  0
LTYPE
  5
41
330
5
100
AcDbSymbolTableRecord
100
AcDbLinetypeTableRecord
  2
CENTER
 70
     0
  3
Center ____ _ ____ _ ____ _ ____ _ ____ _ ____
 72
    65
 73
     4
 40
0.4
 49
0.25
 74
     0
 49
-0.05
 74
     0
 49
0.05
 74
     0
 49
-0.05
 74
     0
  0
LTYPE
  5
42
330
5
100
AcDbSymbolTableRecord
100
AcDbLinetypeTableRecord
  2
CENTERX2
 70
     0
  3
Center (2x) ________  __  ________  __  _____
 72
    65
 73
     4
 40
0.8
 49
0.5
 74
     0
 49
-0.1
 74
     0
 49
0.1
 74
     0
 49
-0.1
 74
     0
  0
LTYPE
  5
43
330
5
100
AcDbSymbolTableRecord
100
AcDbLinetypeTableRecord
  2
DOT2
 70
     0
  3
Dot (.5x) ........................................
 72
    65
 73
     2
 40
0.025
 49
0.0
 74
     0
 49
-0.025
 74
     0
  0
ENDTAB
  0
TABLE
  2
LAYER
  5
2
330
0
100
AcDbSymbolTable
 70
     3
  0
LAYER
  5
10
330
2
100
AcDbSymbolTableRecord
100
AcDbLayerTableRecord
  2
0
 70
     0
 62
     7
  6
Continuous
370
    -3
390
F
  0
LAYER
  5
44
330
2
100
AcDbSymbolTableRecord
100
AcDbLayerTableRecord
  2
SLD-0
 70
     0
 62
    -7
  6
Continuous
370
    -3
390
F
  0
LAYER
  5
45
330
2
100
AcDbSymbolTableRecord
100
AcDbLayerTableRecord
  2
FORMAT
 70
     0
 62
     7
  6
Continuous
370
    -3
390
F
  0
ENDTAB
  0
TABLE
  2
STYLE
  5
3
330
0
100
AcDbSymbolTable
 70
     2
  0
STYLE
  5
11
330
3
100
AcDbSymbolTableRecord
100
AcDbTextStyleTableRecord
  2
Standard
 70
     0
 40
0.0
 41
1.0
 50
0.0
 71
     0
 42
0.2
  3
txt
  4

  0
STYLE
  5
133
330
3
100
AcDbSymbolTableRecord
100
AcDbTextStyleTableRecord
  2
SLDTEXTSTYLE0
 70
     0
 40
0.0
 41
0.75
 50
0.0
 71
     0
 42
0.2
  3
TXT
  4

  0
ENDTAB
  0
TABLE
  2
VIEW
  5
6
330
0
100
AcDbSymbolTable
 70
     0
  0
ENDTAB
  0
TABLE
  2
UCS
  5
7
330
0
100
AcDbSymbolTable
 70
     0
  0
ENDTAB
  0
TABLE
  2
APPID
  5
9
330
0
100
AcDbSymbolTable
 70
     1
  0
APPID
  5
12
330
9
100
AcDbSymbolTableRecord
100
AcDbRegAppTableRecord
  2
ACAD
 70
     0
  0
ENDTAB
  0
TABLE
  2
DIMSTYLE
  5
A
330
0
100
AcDbSymbolTable
 70
     1
100
AcDbDimStyleTable
  0
DIMSTYLE
105
27
330
A
100
AcDbSymbolTableRecord
100
AcDbDimStyleTableRecord
  2
Standard
 70
     0
178
     0
340
11
  0
ENDTAB
  0
TABLE
  2
BLOCK_RECORD
  5
1
330
0
100
AcDbSymbolTable
 70
     2
  0
BLOCK_RECORD
  5
1F
330
1
100
AcDbSymbolTableRecord
100
AcDbBlockTableRecord
  2
*Model_Space
340
22
  0
BLOCK_RECORD
  5
1B
330
1
100
AcDbSymbolTableRecord
100
AcDbBlockTableRecord
  2
*Paper_Space
340
1E
  0
BLOCK_RECORD
  5
23
330
1
100
AcDbSymbolTableRecord
100
AcDbBlockTableRecord
  2
*Paper_Space0
340
26
  0
BLOCK_RECORD
  5
2EE
330
1
100
AcDbSymbolTableRecord
100
AcDbBlockTableRecord
  2
SW_NOTE_0
340
0
102
{BLKREFS
331
2F3
102
}
  0
ENDTAB
  0
ENDSEC
  0
SECTION
  2
BLOCKS
  0
BLOCK
  5
20
330
1F
100
AcDbEntity
  8
0
100
AcDbBlockBegin
  2
*Model_Space
 70
     0
 10
0.0
 20
0.0
 30
0.0
  3
*Model_Space
  1

  0
ENDBLK
  5
21
330
1F
100
AcDbEntity
  8
0
100
AcDbBlockEnd
  0
BLOCK
  5
1C
330
1B
100
AcDbEntity
 67
     1
  8
0
100
AcDbBlockBegin
  2
*Paper_Space
 70
     0
 10
0.0
 20
0.0
 30
0.0
  3
*Paper_Space
  1

  0
ENDBLK
  5
1D
330
1B
100
AcDbEntity
 67
     1
  8
0
100
AcDbBlockEnd
  0
BLOCK
  5
24
330
23
100
AcDbEntity
  8
0
100
AcDbBlockBegin
  2
*Paper_Space0
 70
     0
 10
0.0
 20
0.0
 30
0.0
  3
*Paper_Space0
  1

  0
ENDBLK
  5
25
330
23
100
AcDbEntity
  8
0
100
AcDbBlockEnd
  0
BLOCK
  5
2EF
330
2EE
100
AcDbEntity
  8
0
100
AcDbBlockBegin
  2
SW_NOTE_0
 70
     0
 10
0.0
 20
0.0
 30
0.0
  3
SW_NOTE_0
  1

  0
MTEXT
  5
2F1
330
2EE
100
AcDbEntity
  8
FORMAT
 62
     0
100
AcDbMText
 10
1.6611328125
 20
0.1879890454
 30
0.0
 40
0.1458333333
 41
0.0
 71
     2
 72
     1
  1
\LTITUS CT-481, LINEAR BAR DIFFUSER
  7
SLDTEXTSTYLE0
 73
     1
 44
1.0
  0
MTEXT
  5
2F2
330
2EE
100
AcDbEntity
  8
FORMAT
 62
     0
100
AcDbMText
 10
1.6765095374
 20
-0.0064553967
 30
0.0
 40
0.1458333333
 41
0.0
 71
     2
 72
     1
  1
\LBORDER TYPE 22
  7
SLDTEXTSTYLE0
 73
     1
 44
1.0
  0
ENDBLK
  5
2F0
330
2EE
100
AcDbEntity
  8
0
100
AcDbBlockEnd
  0
ENDSEC
  0
SECTION
  2
ENTITIES
  0
LINE
  5
46
330
1F
100
AcDbEntity
  8
0
  6
Continuous
 62
     7
370
    15
100
AcDbLine
 10
-13.8499459805
 20
4.6717642411
 30
0.0
 11
-13.8499459805
 21
3.742764253
 31
0.0
  0
ARC
  5
47
330
1F
100
AcDbEntity
  8
0
  6
Continuous
 62
     7
370
    15
100
AcDbCircle
 10
-13.864945478
 20
3.7427641857
 30
0.0
 40
0.0150000000000006
100
AcDbArc
 50
270.0
 51
0.0
  0
ARC
  5
48
330
1F
100
AcDbEntity
  8
0
  6
Continuous
 62
     7
370
    15
100
AcDbCircle
 10
-13.906945478
 20
6.3597641857
 30
0.0
 40
0.0250000000000021
100
AcDbArc
 50
0.0
 51
90.0
  0
LINE
  5
49
330
1F
100
AcDbEntity
  8
0
  6
Continuous
 62
     7
370
    15
100
AcDbLine
 10
-13.8819459309
 20
6.3597641856
 30
0.0
 11
-13.8819459309
 21
6.352764185
 31
0.0
  0
LINE
  5
4A
330
1F
100
AcDbEntity
  8
0
  6
Continuous
 62
     7
370
    15
100
AcDbLine
 10
-13.8819459309
 20
6.352764185
 30
0.0
 11
-12.2869455831
 21
6.3327641839
 31
0.0
  0
ARC
  5
4B
330
1F
100
AcDbEntity
  8
0
  6
Continuous
 62
     7
370
    15
100
AcDbCircle
 10
-12.311945478
 20
6.3177641857
 30
0.0
 40
0.0250000000000004
100
AcDbArc
 50
270.0
 51
0.0
  0
ARC
  5
4C
330
1F
100
AcDbEntity
  8
0
  6
Continuous
 62
     7
370
    15
100
AcDbCircle
 10
-13.834945478
 20
6.2777641857
 30
0.0
 40
0.0149999999999997
100
AcDbArc
 50
90.0
 51
180.0
  0
LINE
  5
4D
330
1F
100
AcDbEntity
  8
0
  6
Continuous
 62
     7
370
    15
100
AcDbLine
 10
-13.8499459805
 20
6.2777641868
 30
0.0
 11
-13.8499459805
 21
5.6827641753
 31
0.0
  0
ARC
  5
4E
330
1F
100
AcDbEntity
  8
0
  6
Continuous
 62
     7
370
    15
100
AcDbCircle
 10
-13.834945478
 20
5.6827641857
 30
0.0
 40
0.0149999999999997
100
AcDbArc
 50
180.0
 51
270.0
  0
ARC
  5
4F
330
1F
100
AcDbEntity
  8
0
  6
Continuous
 62
     7
370
    15
100
AcDbCircle
 10
-13.552945478
 20
5.6527641857
 30
0.0
 40
0.0150000000000006
100
AcDbArc
 50
0.0
 51
90.0
  0
LINE
  5
50
330
1F
100
AcDbEntity
  8
0
  6
Continuous
 62
     7
370
    15
100
AcDbLine
 10
-13.5379449981
 20
5.6527642218
 30
0.0
 11
-13.5379449981
 21
5.557764186
 31
0.0
  0
ARC
  5
51
330
1F
100
AcDbEntity
  8
0
  6
Continuous
 62
     7
370
    15
100
AcDbCircle
 10
-13.552945478
 20
5.5577641857
 30
0.0
 40
0.0150000000000006
100
AcDbArc
 50
270.0
 51
0.0
  0
LINE
  5
52
330
1F
100
AcDbEntity
  8
0
  6
Continuous
 62
     7
370
    15
100
AcDbLine
 10
-13.8499459805
 20
5.5427641726
 30
0.0
 11
-13.8499459805
 21
5.4357641553
 31
0.0
  0
ARC
  5
53
330
1F
100
AcDbEntity
  8
0
  6
Continuous
 62
     7
370
    15
100
AcDbCircle
 10
-13.834945478
 20
5.4357641857
 30
0.0
 40
0.0149999999999997
100
AcDbArc
 50
180.0
 51
270.0
  0
LINE
  5
54
330
1F
100
AcDbEntity
  8
0
  6
Continuous
 62
     7
370
    15
100
AcDbLine
 10
-12.2869455831
 20
6.3177641843
 30
0.0
 11
-12.2869455831
 21
6.3327641839
 31
0.0
  0
ARC
  5
55
330
1F
100
AcDbEntity
  8
0
  6
Continuous
 62
     7
370
    15
100
AcDbCircle
 10
-13.302945478
 20
4.6867641857
 30
0.0
 40
0.0149999999999997
100
AcDbArc
 50
270.0
 51
360.0
  0
LINE
  5
56
330
1F
100
AcDbEntity
  8
0
  6
Continuous
 62
     7
370
    15
100
AcDbLine
 10
-13.4599450458
 20
4.6717642411
 30
0.0
 11
-13.3029454729
 21
4.6717642411
 31
0.0
  0
ARC
  5
57
330
1F
100
AcDbEntity
  8
0
  6
Continuous
 62
     7
370
    15
100
AcDbCircle
 10
-13.459945478
 20
4.6867641857
 30
0.0
 40
0.0149999999999988
100
AcDbArc
 50
180.0
 51
270.0
  0
LINE
  5
58
330
1F
100
AcDbEntity
  8
0
  6
Continuous
 62
     7
370
    15
100
AcDbLine
 10
-13.4749459392
 20
5.3437641514
 30
0.0
 11
-13.4749459392
 21
4.6867642545
 31
0.0
  0
ARC
  5
59
330
1F
100
AcDbEntity
  8
0
  6
Continuous
 62
     7
370
    15
100
AcDbCircle
 10
-13.489945478
 20
5.3437641857
 30
0.0
 40
0.0150000000000015
100
AcDbArc
 50
0.0
 51
90.0
  0
LINE
  5
5A
330
1F
100
AcDbEntity
  8
0
  6
Continuous
 62
     7
370
    15
100
AcDbLine
 10
-13.5379449981
 20
5.3587641648
 30
0.0
 11
-13.4899456593
 21
5.3587641648
 31
0.0
  0
LINE
  5
5B
330
1F
100
AcDbEntity
  8
0
  6
Continuous
 62
     7
370
    15
100
AcDbLine
 10
-13.3029454729
 20
5.4207642153
 30
0.0
 11
-13.5379449981
 21
5.4207642153
 31
0.0
  0
ARC
  5
5C
330
1F
100
AcDbEntity
  8
0
  6
Continuous
 62
     7
370
    15
100
AcDbCircle
 10
-13.302945478
 20
5.4057641857
 30
0.0
 40
0.0149999999999997
100
AcDbArc
 50
360.0
 51
90.0
  0
LINE
  5
5D
330
1F
100
AcDbEntity
  8
0
  6
Continuous
 62
     7
370
    15
100
AcDbLine
 10
-13.2879457528
 20
5.4057642019
 30
0.0
 11
-13.2879457528
 21
5.3057642104
 31
0.0
  0
ARC
  5
5E
330
1F
100
AcDbEntity
  8
0
  6
Continuous
 62
     7
370
    15
100
AcDbCircle
 10
-13.302945478
 20
5.3057641857
 30
0.0
 40
0.0150000000000015
100
AcDbArc
 50
270.0
 51
360.0
  0
LINE
  5
5F
330
1F
100
AcDbEntity
  8
0
  6
Continuous
 62
     7
370
    15
100
AcDbLine
 10
-13.3349454232
 20
5.290764197
 30
0.0
 11
-13.3029454729
 21
5.290764197
 31
0.0
  0
ARC
  5
60
330
1F
100
AcDbEntity
  8
0
  6
Continuous
 62
     7
370
    15
100
AcDbCircle
 10
-13.334945478
 20
5.3057641857
 30
0.0
 40
0.0150000000000006
100
AcDbArc
 50
180.0
 51
270.0
  0
LINE
  5
61
330
1F
100
AcDbEntity
  8
0
  6
Continuous
 62
     7
370
    15
100
AcDbLine
 10
-13.3499451432
 20
5.3437641514
 30
0.0
 11
-13.3499451432
 21
5.3057642104
 31
0.0
  0
ARC
  5
62
330
1F
100
AcDbEntity
  8
0
  6
Continuous
 62
     7
370
    15
100
AcDbCircle
 10
-13.364945478
 20
5.3437641857
 30
0.0
 40
0.0150000000000015
100
AcDbArc
 50
0.0
 51
90.0
  0
LINE
  5
63
330
1F
100
AcDbEntity
  8
0
  6
Continuous
 62
     7
370
    15
100
AcDbLine
 10
-13.3979456554
 20
5.3587641648
 30
0.0
 11
-13.3649460366
 21
5.3587641648
 31
0.0
  0
ARC
  5
64
330
1F
100
AcDbEntity
  8
0
  6
Continuous
 62
     7
370
    15
100
AcDbCircle
 10
-13.397945478
 20
5.3437641857
 30
0.0
 40
0.0150000000000015
100
AcDbArc
 50
90.0
 51
180.0
  0
LINE
  5
65
330
1F
100
AcDbEntity
  8
0
  6
Continuous
 62
     7
370
    15
100
AcDbLine
 10
-13.4129453755
 20
4.7487642316
 30
0.0
 11
-13.4129453755
 21
5.3437641514
 31
0.0
  0
ARC
  5
66
330
1F
100
AcDbEntity
  8
0
  6
Continuous
 62
     7
370
    15
100
AcDbCircle
 10
-13.397945478
 20
4.7487641857
 30
0.0
 40
0.0149999999999997
100
AcDbArc
 50
180.0
 51
270.0
  0
LINE
  5
67
330
1F
100
AcDbEntity
  8
0
  6
Continuous
 62
     7
370
    15
100
AcDbLine
 10
-13.3649460366
 20
4.7337642182
 30
0.0
 11
-13.3979456554
 21
4.7337642182
 31
0.0
  0
ARC
  5
68
330
1F
100
AcDbEntity
  8
0
  6
Continuous
 62
     7
370
    15
100
AcDbCircle
 10
-13.364945478
 20
4.7487641857
 30
0.0
 40
0.0150000000000006
100
AcDbArc
 50
270.0
 51
0.0
  0
LINE
  5
69
330
1F
100
AcDbEntity
  8
0
  6
Continuous
 62
     7
370
    15
100
AcDbLine
 10
-13.3499451432
 20
4.7867642459
 30
0.0
 11
-13.3499451432
 21
4.7487642316
 31
0.0
  0
ARC
  5
6A
330
1F
100
AcDbEntity
  8
0
  6
Continuous
 62
     7
370
    15
100
AcDbCircle
 10
-13.334945478
 20
4.7867641857
 30
0.0
 40
0.0150000000000006
100
AcDbArc
 50
90.0
 51
180.0
  0
LINE
  5
6B
330
1F
100
AcDbEntity
  8
0
  6
Continuous
 62
     7
370
    15
100
AcDbLine
 10
-13.3029454729
 20
4.8017641127
 30
0.0
 11
-13.3349454232
 21
4.8017641127
 31
0.0
  0
ARC
  5
6C
330
1F
100
AcDbEntity
  8
0
  6
Continuous
 62
     7
370
    15
100
AcDbCircle
 10
-13.302945478
 20
4.7867641857
 30
0.0
 40
0.0150000000000006
100
AcDbArc
 50
360.0
 51
90.0
  0
LINE
  5
6D
330
1F
100
AcDbEntity
  8
0
  6
Continuous
 62
     7
370
    15
100
AcDbLine
 10
-13.2879457528
 20
4.7867642459
 30
0.0
 11
-13.2879457528
 21
4.6867642545
 31
0.0
  0
ARC
  5
6E
330
1F
100
AcDbEntity
  8
0
  6
Continuous
 62
     7
370
    15
100
AcDbCircle
 10
-37.238945478
 20
5.4357641857
 30
0.0
 40
0.0150000000000006
100
AcDbArc
 50
270.0
 51
0.0
  0
LINE
  5
6F
330
1F
100
AcDbEntity
  8
0
  6
Continuous
 62
     7
370
    15
100
AcDbLine
 10
-37.2239449754
 20
5.4357641553
 30
0.0
 11
-37.2239449754
 21
5.5427641726
 31
0.0
  0
ARC
  5
70
330
1F
100
AcDbEntity
  8
0
  6
Continuous
 62
     7
370
    15
100
AcDbCircle
 10
-37.520945478
 20
5.5577641857
 30
0.0
 40
0.0150000000000015
100
AcDbArc
 50
180.0
 51
270.0
  0
LINE
  5
71
330
1F
100
AcDbEntity
  8
0
  6
Continuous
 62
     7
370
    15
100
AcDbLine
 10
-37.5359459578
 20
5.557764186
 30
0.0
 11
-37.5359459578
 21
5.6527642218
 31
0.0
  0
ARC
  5
72
330
1F
100
AcDbEntity
  8
0
  6
Continuous
 62
     7
370
    15
100
AcDbCircle
 10
-37.520945478
 20
5.6527641857
 30
0.0
 40
0.0150000000000006
100
AcDbArc
 50
90.0
 51
180.0
  0
ARC
  5
73
330
1F
100
AcDbEntity
  8
0
  6
Continuous
 62
     7
370
    15
100
AcDbCircle
 10
-37.238945478
 20
5.6827641857
 30
0.0
 40
0.0150000000000006
100
AcDbArc
 50
270.0
 51
0.0
  0
LINE
  5
74
330
1F
100
AcDbEntity
  8
0
  6
Continuous
 62
     7
370
    15
100
AcDbLine
 10
-37.2239449754
 20
5.6827641753
 30
0.0
 11
-37.2239449754
 21
6.2777641868
 31
0.0
  0
ARC
  5
75
330
1F
100
AcDbEntity
  8
0
  6
Continuous
 62
     7
370
    15
100
AcDbCircle
 10
-37.238945478
 20
6.2777641857
 30
0.0
 40
0.0150000000000006
100
AcDbArc
 50
0.0
 51
90.0
  0
ARC
  5
76
330
1F
100
AcDbEntity
  8
0
  6
Continuous
 62
     7
370
    15
100
AcDbCircle
 10
-38.761945478
 20
6.3177641857
 30
0.0
 40
0.0250000000000057
100
AcDbArc
 50
180.0
 51
270.0
  0
LINE
  5
77
330
1F
100
AcDbEntity
  8
0
  6
Continuous
 62
     7
370
    15
100
AcDbLine
 10
-38.7869453728
 20
6.3177641843
 30
0.0
 11
-38.7869453728
 21
6.3327641839
 31
0.0
  0
LINE
  5
78
330
1F
100
AcDbEntity
  8
0
  6
Continuous
 62
     7
370
    15
100
AcDbLine
 10
-38.7869453728
 20
6.3327641839
 30
0.0
 11
-37.1919450251
 21
6.352764185
 31
0.0
  0
LINE
  5
79
330
1F
100
AcDbEntity
  8
0
  6
Continuous
 62
     7
370
    15
100
AcDbLine
 10
-37.1919450251
 20
6.352764185
 30
0.0
 11
-37.1919450251
 21
6.3597641856
 31
0.0
  0
ARC
  5
7A
330
1F
100
AcDbEntity
  8
0
  6
Continuous
 62
     7
370
    15
100
AcDbCircle
 10
-37.166945478
 20
6.3597641857
 30
0.0
 40
0.0250000000000057
100
AcDbArc
 50
90.0
 51
180.0
  0
ARC
  5
7B
330
1F
100
AcDbEntity
  8
0
  6
Continuous
 62
     7
370
    15
100
AcDbCircle
 10
-37.208945478
 20
3.7427641857
 30
0.0
 40
0.0150000000000077
100
AcDbArc
 50
180.0
 51
270.0
  0
LINE
  5
7C
330
1F
100
AcDbEntity
  8
0
  6
Continuous
 62
     7
370
    15
100
AcDbLine
 10
-37.2239449754
 20
3.742764253
 30
0.0
 11
-37.2239449754
 21
4.6717642411
 31
0.0
  0
LINE
  5
7D
330
1F
100
AcDbEntity
  8
0
  6
Continuous
 62
     7
370
    15
100
AcDbLine
 10
-37.7859452032
 20
4.7867642459
 30
0.0
 11
-37.7859452032
 21
4.6867642545
 31
0.0
  0
ARC
  5
7E
330
1F
100
AcDbEntity
  8
0
  6
Continuous
 62
     7
370
    15
100
AcDbCircle
 10
-37.770945478
 20
4.7867641857
 30
0.0
 40
0.0150000000000006
100
AcDbArc
 50
90.0
 51
180.0
  0
LINE
  5
7F
330
1F
100
AcDbEntity
  8
0
  6
Continuous
 62
     7
370
    15
100
AcDbLine
 10
-37.7709454831
 20
4.8017641127
 30
0.0
 11
-37.7389455328
 21
4.8017641127
 31
0.0
  0
ARC
  5
80
330
1F
100
AcDbEntity
  8
0
  6
Continuous
 62
     7
370
    15
100
AcDbCircle
 10
-37.738945478
 20
4.7867641857
 30
0.0
 40
0.0150000000000006
100
AcDbArc
 50
0.0
 51
90.0
  0
LINE
  5
81
330
1F
100
AcDbEntity
  8
0
  6
Continuous
 62
     7
370
    15
100
AcDbLine
 10
-37.7239458127
 20
4.7867642459
 30
0.0
 11
-37.7239458127
 21
4.7487642316
 31
0.0
  0
ARC
  5
82
330
1F
100
AcDbEntity
  8
0
  6
Continuous
 62
     7
370
    15
100
AcDbCircle
 10
-37.708945478
 20
4.7487641857
 30
0.0
 40
0.0150000000000006
100
AcDbArc
 50
180.0
 51
270.0
  0
LINE
  5
83
330
1F
100
AcDbEntity
  8
0
  6
Continuous
 62
     7
370
    15
100
AcDbLine
 10
-37.7089449193
 20
4.7337642182
 30
0.0
 11
-37.6759453005
 21
4.7337642182
 31
0.0
  0
ARC
  5
84
330
1F
100
AcDbEntity
  8
0
  6
Continuous
 62
     7
370
    15
100
AcDbCircle
 10
-37.675945478
 20
4.7487641857
 30
0.0
 40
0.0150000000000015
100
AcDbArc
 50
270.0
 51
360.0
  0
LINE
  5
85
330
1F
100
AcDbEntity
  8
0
  6
Continuous
 62
     7
370
    15
100
AcDbLine
 10
-37.6609455805
 20
4.7487642316
 30
0.0
 11
-37.6609455805
 21
5.3437641514
 31
0.0
  0
ARC
  5
86
330
1F
100
AcDbEntity
  8
0
  6
Continuous
 62
     7
370
    15
100
AcDbCircle
 10
-37.675945478
 20
5.3437641857
 30
0.0
 40
0.0150000000000006
100
AcDbArc
 50
0.0
 51
90.0
  0
LINE
  5
87
330
1F
100
AcDbEntity
  8
0
  6
Continuous
 62
     7
370
    15
100
AcDbLine
 10
-37.6759453005
 20
5.3587641648
 30
0.0
 11
-37.7089449193
 21
5.3587641648
 31
0.0
  0
ARC
  5
88
330
1F
100
AcDbEntity
  8
0
  6
Continuous
 62
     7
370
    15
100
AcDbCircle
 10
-37.708945478
 20
5.3437641857
 30
0.0
 40
0.0150000000000006
100
AcDbArc
 50
90.0
 51
180.0
  0
LINE
  5
89
330
1F
100
AcDbEntity
  8
0
  6
Continuous
 62
     7
370
    15
100
AcDbLine
 10
-37.7239458127
 20
5.3437641514
 30
0.0
 11
-37.7239458127
 21
5.3057642104
 31
0.0
  0
ARC
  5
8A
330
1F
100
AcDbEntity
  8
0
  6
Continuous
 62
     7
370
    15
100
AcDbCircle
 10
-37.738945478
 20
5.3057641857
 30
0.0
 40
0.0150000000000006
100
AcDbArc
 50
270.0
 51
0.0
  0
LINE
  5
8B
330
1F
100
AcDbEntity
  8
0
  6
Continuous
 62
     7
370
    15
100
AcDbLine
 10
-37.7389455328
 20
5.290764197
 30
0.0
 11
-37.7709454831
 21
5.290764197
 31
0.0
  0
ARC
  5
8C
330
1F
100
AcDbEntity
  8
0
  6
Continuous
 62
     7
370
    15
100
AcDbCircle
 10
-37.770945478
 20
5.3057641857
 30
0.0
 40
0.0149999999999997
100
AcDbArc
 50
180.0
 51
270.0
  0
LINE
  5
8D
330
1F
100
AcDbEntity
  8
0
  6
Continuous
 62
     7
370
    15
100
AcDbLine
 10
-37.7859452032
 20
5.4057642019
 30
0.0
 11
-37.7859452032
 21
5.3057642104
 31
0.0
  0
ARC
  5
8E
330
1F
100
AcDbEntity
  8
0
  6
Continuous
 62
     7
370
    15
100
AcDbCircle
 10
-37.770945478
 20
5.4057641857
 30
0.0
 40
0.0150000000000015
100
AcDbArc
 50
90.0
 51
180.0
  0
LINE
  5
8F
330
1F
100
AcDbEntity
  8
0
  6
Continuous
 62
     7
370
    15
100
AcDbLine
 10
-37.7709454831
 20
5.4207642153
 30
0.0
 11
-37.5359459578
 21
5.4207642153
 31
0.0
  0
ARC
  5
90
330
1F
100
AcDbEntity
  8
0
  6
Continuous
 62
     7
370
    15
100
AcDbCircle
 10
-37.583945478
 20
5.3437641857
 30
0.0
 40
0.0150000000000077
100
AcDbArc
 50
90.0
 51
180.0
  0
LINE
  5
91
330
1F
100
AcDbEntity
  8
0
  6
Continuous
 62
     7
370
    15
100
AcDbLine
 10
-37.5989450167
 20
5.3437641514
 30
0.0
 11
-37.5989450167
 21
4.6867642545
 31
0.0
  0
ARC
  5
92
330
1F
100
AcDbEntity
  8
0
  6
Continuous
 62
     7
370
    15
100
AcDbCircle
 10
-37.613945478
 20
4.6867641857
 30
0.0
 40
0.0150000000000006
100
AcDbArc
 50
270.0
 51
0.0
  0
LINE
  5
93
330
1F
100
AcDbEntity
  8
0
  6
Continuous
 62
     7
370
    15
100
AcDbLine
 10
-37.6139459101
 20
4.6717642411
 30
0.0
 11
-37.7709454831
 21
4.6717642411
 31
0.0
  0
ARC
  5
94
330
1F
100
AcDbEntity
  8
0
  6
Continuous
 62
     7
370
    15
100
AcDbCircle
 10
-37.770945478
 20
4.6867641857
 30
0.0
 40
0.0149999999999997
100
AcDbArc
 50
180.0
 51
270.0
  0
LINE
  5
95
330
1F
100
AcDbEntity
  8
0
  6
Continuous
 62
     7
370
    15
100
AcDbLine
 10
-37.5359459578
 20
5.3587641648
 30
0.0
 11
-37.5839452967
 21
5.3587641648
 31
0.0
  0
LINE
  5
96
330
1F
100
AcDbEntity
  8
0
  6
Continuous
 62
     7
370
    15
100
AcDbLine
 10
-12.2869455831
 20
6.3327641839
 30
0.0
 11
-38.7869453728
 21
6.3327641839
 31
0.0
  0
LINE
  5
97
330
1F
100
AcDbEntity
  8
0
  6
Continuous
 62
     7
370
    15
100
AcDbLine
 10
-38.7869453728
 20
6.3177641843
 30
0.0
 11
-12.2869455831
 21
6.3177641843
 31
0.0
  0
LINE
  5
98
330
1F
100
AcDbEntity
  8
0
  6
Continuous
 62
     7
370
    15
100
AcDbLine
 10
-12.3119455076
 20
6.2927641818
 30
0.0
 11
-38.7619454483
 21
6.2927641818
 31
0.0
  0
LINE
  5
99
330
1F
100
AcDbEntity
  8
0
  6
Continuous
 62
     7
370
    15
100
AcDbLine
 10
-13.8819459309
 20
6.352764185
 30
0.0
 11
-37.1919450251
 21
6.352764185
 31
0.0
  0
LINE
  5
9A
330
1F
100
AcDbEntity
  8
0
  6
Continuous
 62
     7
370
    15
100
AcDbLine
 10
-37.5359459578
 20
4.8017641127
 30
0.0
 11
-37.5359459578
 21
4.7867642459
 31
0.0
  0
LINE
  5
9B
330
1F
100
AcDbEntity
  8
0
  6
Continuous
 62
     7
370
    15
100
AcDbLine
 10
-37.5359459578
 20
4.8017641127
 30
0.0
 11
-26.9109454721
 21
4.8017641127
 31
0.0
  0
LINE
  5
9C
330
1F
100
AcDbEntity
  8
0
  6
Continuous
 62
     7
370
    15
100
AcDbLine
 10
-24.9109454962
 20
4.8017641127
 30
0.0
 11
-16.9109454463
 21
4.8017641127
 31
0.0
  0
LINE
  5
9D
330
1F
100
AcDbEntity
  8
0
  6
Continuous
 62
     7
370
    15
100
AcDbLine
 10
-14.9109450304
 20
4.8017641127
 30
0.0
 11
-13.5379449981
 21
4.8017641127
 31
0.0
  0
LINE
  5
9E
330
1F
100
AcDbEntity
  8
0
  6
Continuous
 62
     7
370
    15
100
AcDbLine
 10
-13.5379449981
 20
4.8017641127
 30
0.0
 11
-13.5379449981
 21
4.7867642459
 31
0.0
  0
LINE
  5
9F
330
1F
100
AcDbEntity
  8
0
  6
Continuous
 62
     7
370
    15
100
AcDbLine
 10
-37.5359459578
 20
5.4207642153
 30
0.0
 11
-37.5359459578
 21
5.4057642019
 31
0.0
  0
LINE
  5
A0
330
1F
100
AcDbEntity
  8
0
  6
Continuous
 62
     7
370
    15
100
AcDbLine
 10
-37.5359459578
 20
5.4207642153
 30
0.0
 11
-26.9109454721
 21
5.4207642153
 31
0.0
  0
LINE
  5
A1
330
1F
100
AcDbEntity
  8
0
  6
Continuous
 62
     7
370
    15
100
AcDbLine
 10
-24.9109454962
 20
5.4207642153
 30
0.0
 11
-16.9109454463
 21
5.4207642153
 31
0.0
  0
LINE
  5
A2
330
1F
100
AcDbEntity
  8
0
  6
Continuous
 62
     7
370
    15
100
AcDbLine
 10
-14.9109450304
 20
5.4207642153
 30
0.0
 11
-13.5379449981
 21
5.4207642153
 31
0.0
  0
LINE
  5
A3
330
1F
100
AcDbEntity
  8
0
  6
Continuous
 62
     7
370
    15
100
AcDbLine
 10
-13.5379449981
 20
5.4207642153
 30
0.0
 11
-13.5379449981
 21
5.4057642019
 31
0.0
  0
LINE
  5
A4
330
1F
100
AcDbEntity
  8
0
  6
Continuous
 62
     7
370
    15
100
AcDbLine
 10
-13.5379449981
 20
5.290764197
 30
0.0
 11
-14.9109450304
 21
5.290764197
 31
0.0
  0
LINE
  5
A5
330
1F
100
AcDbEntity
  8
0
  6
Continuous
 62
     7
370
    15
100
AcDbLine
 10
-16.9109454463
 20
5.290764197
 30
0.0
 11
-24.9109454962
 21
5.290764197
 31
0.0
  0
LINE
  5
A6
330
1F
100
AcDbEntity
  8
0
  6
Continuous
 62
     7
370
    15
100
AcDbLine
 10
-26.9109454721
 20
5.290764197
 30
0.0
 11
-37.5359459578
 21
5.290764197
 31
0.0
  0
LINE
  5
A7
330
1F
100
AcDbEntity
  8
0
  6
Continuous
 62
     7
370
    15
100
AcDbLine
 10
-37.5359459578
 20
5.3057642104
 30
0.0
 11
-37.5359459578
 21
5.290764197
 31
0.0
  0
LINE
  5
A8
330
1F
100
AcDbEntity
  8
0
  6
Continuous
 62
     7
370
    15
100
AcDbLine
 10
-13.5379449981
 20
5.3057642104
 30
0.0
 11
-13.5379449981
 21
5.290764197
 31
0.0
  0
LINE
  5
A9
330
1F
100
AcDbEntity
  8
0
  6
Continuous
 62
     7
370
    15
100
AcDbLine
 10
-13.5379449981
 20
4.6717642411
 30
0.0
 11
-37.5359459578
 21
4.6717642411
 31
0.0
  0
LINE
  5
AA
330
1F
100
AcDbEntity
  8
0
  6
Continuous
 62
     7
370
    15
100
AcDbLine
 10
-37.5359459578
 20
4.6867642545
 30
0.0
 11
-37.5359459578
 21
4.6717642411
 31
0.0
  0
LINE
  5
AB
330
1F
100
AcDbEntity
  8
0
  6
Continuous
 62
     7
370
    15
100
AcDbLine
 10
-37.5359459578
 20
4.6867642545
 30
0.0
 11
-13.5379449981
 21
4.6867642545
 31
0.0
  0
LINE
  5
AC
330
1F
100
AcDbEntity
  8
0
  6
Continuous
 62
     7
370
    15
100
AcDbLine
 10
-13.5379449981
 20
4.6867642545
 30
0.0
 11
-13.5379449981
 21
4.6717642411
 31
0.0
  0
LINE
  5
AD
330
1F
100
AcDbEntity
  8
0
  6
Continuous
 62
     7
370
    15
100
AcDbLine
 10
-37.5359459578
 20
5.4057642019
 30
0.0
 11
-37.5359459578
 21
5.3057642104
 31
0.0
  0
LINE
  5
AE
330
1F
100
AcDbEntity
  8
0
  6
Continuous
 62
     7
370
    15
100
AcDbLine
 10
-13.5379449981
 20
5.4057642019
 30
0.0
 11
-13.5379449981
 21
5.3057642104
 31
0.0
  0
LINE
  5
AF
330
1F
100
AcDbEntity
  8
0
  6
Continuous
 62
     7
370
    15
100
AcDbLine
 10
-37.5359459578
 20
4.7867642459
 30
0.0
 11
-37.5359459578
 21
4.6867642545
 31
0.0
  0
LINE
  5
B0
330
1F
100
AcDbEntity
  8
0
  6
Continuous
 62
     7
370
    15
100
AcDbLine
 10
-13.5379449981
 20
4.7867642459
 30
0.0
 11
-13.5379449981
 21
4.6867642545
 31
0.0
  0
LINE
  5
B1
330
1F
100
AcDbEntity
  8
0
  6
Continuous
 62
     7
370
    15
100
AcDbLine
 10
-37.5359459578
 20
4.8017641127
 30
0.0
 11
-37.5359459578
 21
5.290764197
 31
0.0
  0
LINE
  5
B2
330
1F
100
AcDbEntity
  8
0
  6
Continuous
 62
     7
370
    15
100
AcDbLine
 10
-13.5379449981
 20
4.8017641127
 30
0.0
 11
-13.5379449981
 21
5.290764197
 31
0.0
  0
LINE
  5
B3
330
1F
100
AcDbEntity
  8
0
  6
Continuous
 62
     7
370
    15
100
AcDbLine
 10
-37.5209450645
 20
5.6677641619
 30
0.0
 11
-26.9109454721
 21
5.6677641619
 31
0.0
  0
LINE
  5
B4
330
1F
100
AcDbEntity
  8
0
  6
Continuous
 62
     7
370
    15
100
AcDbLine
 10
-24.9109454962
 20
5.6677641619
 30
0.0
 11
-16.9109454463
 21
5.6677641619
 31
0.0
  0
LINE
  5
B5
330
1F
100
AcDbEntity
  8
0
  6
Continuous
 62
     7
370
    15
100
AcDbLine
 10
-14.9109450304
 20
5.6677641619
 30
0.0
 11
-13.5529458915
 21
5.6677641619
 31
0.0
  0
LINE
  5
B6
330
1F
100
AcDbEntity
  8
0
  6
Continuous
 62
     7
370
    15
100
AcDbLine
 10
-13.5529458915
 20
5.5427641726
 30
0.0
 11
-14.9109450304
 21
5.5427641726
 31
0.0
  0
LINE
  5
B7
330
1F
100
AcDbEntity
  8
0
  6
Continuous
 62
     7
370
    15
100
AcDbLine
 10
-16.9109454463
 20
5.5427641726
 30
0.0
 11
-24.9109454962
 21
5.5427641726
 31
0.0
  0
LINE
  5
B8
330
1F
100
AcDbEntity
  8
0
  6
Continuous
 62
     7
370
    15
100
AcDbLine
 10
-26.9109454721
 20
5.5427641726
 30
0.0
 11
-37.5209450645
 21
5.5427641726
 31
0.0
  0
LINE
  5
B9
330
1F
100
AcDbEntity
  8
0
  6
Continuous
 62
     7
370
    15
100
AcDbLine
 10
-37.2239449754
 20
5.6827641753
 30
0.0
 11
-13.8499459805
 21
5.6827641753
 31
0.0
  0
LINE
  5
BA
330
1F
100
AcDbEntity
  8
0
  6
Continuous
 62
     7
370
    15
100
AcDbLine
 10
-13.8499459805
 20
6.2777641868
 30
0.0
 11
-37.2239449754
 21
6.2777641868
 31
0.0
  0
LINE
  5
BB
330
1F
100
AcDbEntity
  8
0
  6
Continuous
 62
     7
370
    15
100
AcDbLine
 10
-37.2239449754
 20
3.742764253
 30
0.0
 11
-13.8499459805
 21
3.742764253
 31
0.0
  0
LINE
  5
BC
330
1F
100
AcDbEntity
  8
0
  6
Continuous
 62
     7
370
    15
100
AcDbLine
 10
-13.8649457006
 20
3.7277642396
 30
0.0
 11
-37.2089452554
 21
3.7277642396
 31
0.0
  0
LINE
  5
BD
330
1F
100
AcDbEntity
  8
0
  6
Continuous
 62
     7
370
    15
100
AcDbLine
 10
-13.8819459309
 20
6.3597641856
 30
0.0
 11
-37.1919450251
 21
6.3597641856
 31
0.0
  0
LINE
  5
BE
330
1F
100
AcDbEntity
  8
0
  6
Continuous
 62
     7
370
    15
100
AcDbLine
 10
-13.9069458554
 20
6.3847641857
 30
0.0
 11
-37.1669451006
 21
6.3847641857
 31
0.0
  0
LINE
  5
BF
330
1F
100
AcDbEntity
  8
0
  6
Continuous
 62
     7
370
    15
100
AcDbLine
 10
-24.9109454962
 20
5.6527642218
 30
0.0
 11
-24.9109454962
 21
5.6605719316
 31
0.0
  0
LINE
  5
C0
330
1F
100
AcDbEntity
  8
0
  6
Continuous
 62
     7
370
    15
100
AcDbLine
 10
-26.9109454721
 20
5.6527642218
 30
0.0
 11
-24.9109454962
 21
5.6527642218
 31
0.0
  0
LINE
  5
C1
330
1F
100
AcDbEntity
  8
0
  6
Continuous
 62
     7
370
    15
100
AcDbLine
 10
-26.9109454721
 20
5.6605719316
 30
0.0
 11
-26.9109454721
 21
5.6527642218
 31
0.0
  0
LINE
  5
C2
330
1F
100
AcDbEntity
  8
0
  6
Continuous
 62
     7
370
    15
100
AcDbLine
 10
-24.9109454962
 20
5.6605719316
 30
0.0
 11
-26.9109454721
 21
5.6605719316
 31
0.0
  0
LINE
  5
C3
330
1F
100
AcDbEntity
  8
0
  6
Continuous
 62
     7
370
    15
100
AcDbLine
 10
-24.9109454962
 20
5.6327641795
 30
0.0
 11
-24.9109454962
 21
5.6527642218
 31
0.0
  0
LINE
  5
C4
330
1F
100
AcDbEntity
  8
0
  6
Continuous
 62
     7
370
    15
100
AcDbLine
 10
-26.9109454721
 20
5.6327641795
 30
0.0
 11
-24.9109454962
 21
5.6327641795
 31
0.0
  0
LINE
  5
C5
330
1F
100
AcDbEntity
  8
0
  6
Continuous
 62
     7
370
    15
100
AcDbLine
 10
-26.9109454721
 20
5.6327641795
 30
0.0
 11
-26.9109454721
 21
5.6527642218
 31
0.0
  0
LINE
  5
C6
330
1F
100
AcDbEntity
  8
0
  6
Continuous
 62
     7
370
    15
100
AcDbLine
 10
-24.9109454962
 20
5.6177641662
 30
0.0
 11
-24.9109454962
 21
5.6327641795
 31
0.0
  0
LINE
  5
C7
330
1F
100
AcDbEntity
  8
0
  6
Continuous
 62
     7
370
    15
100
AcDbLine
 10
-26.9109454721
 20
5.6177641662
 30
0.0
 11
-24.9109454962
 21
5.6177641662
 31
0.0
  0
LINE
  5
C8
330
1F
100
AcDbEntity
  8
0
  6
Continuous
 62
     7
370
    15
100
AcDbLine
 10
-26.9109454721
 20
5.6327641795
 30
0.0
 11
-26.9109454721
 21
5.6177641662
 31
0.0
  0
LINE
  5
C9
330
1F
100
AcDbEntity
  8
0
  6
Continuous
 62
     7
370
    15
100
AcDbLine
 10
-26.9109454721
 20
5.6677641619
 30
0.0
 11
-24.9109454962
 21
5.6677641619
 31
0.0
  0
LINE
  5
CA
330
1F
100
AcDbEntity
  8
0
  6
Continuous
 62
     7
370
    15
100
AcDbLine
 10
-24.9109454962
 20
5.6605719316
 30
0.0
 11
-24.9109454962
 21
5.6677641619
 31
0.0
  0
LINE
  5
CB
330
1F
100
AcDbEntity
  8
0
  6
Continuous
 62
     7
370
    15
100
AcDbLine
 10
-26.9109454721
 20
5.6677641619
 30
0.0
 11
-26.9109454721
 21
5.6605719316
 31
0.0
  0
LINE
  5
CC
330
1F
100
AcDbEntity
  8
0
  6
Continuous
 62
     7
370
    15
100
AcDbLine
 10
-26.9109454721
 20
5.6027641528
 30
0.0
 11
-24.9109454962
 21
5.6027641528
 31
0.0
  0
LINE
  5
CD
330
1F
100
AcDbEntity
  8
0
  6
Continuous
 62
     7
370
    15
100
AcDbLine
 10
-24.9109454962
 20
5.6027641528
 30
0.0
 11
-24.9109454962
 21
5.6177641662
 31
0.0
  0
LINE
  5
CE
330
1F
100
AcDbEntity
  8
0
  6
Continuous
 62
     7
370
    15
100
AcDbLine
 10
-26.9109454721
 20
5.6177641662
 30
0.0
 11
-26.9109454721
 21
5.6027641528
 31
0.0
  0
LINE
  5
CF
330
1F
100
AcDbEntity
  8
0
  6
Continuous
 62
     7
370
    15
100
AcDbLine
 10
-26.9109454721
 20
5.2037642221
 30
0.0
 11
-24.9109454962
 21
5.2037642221
 31
0.0
  0
LINE
  5
D0
330
1F
100
AcDbEntity
  8
0
  6
Continuous
 62
     7
370
    15
100
AcDbLine
 10
-24.9109454962
 20
5.2037642221
 30
0.0
 11
-24.9109454962
 21
5.6027641528
 31
0.0
  0
LINE
  5
D1
330
1F
100
AcDbEntity
  8
0
  6
Continuous
 62
     7
370
    15
100
AcDbLine
 10
-26.9109454721
 20
5.6027641528
 30
0.0
 11
-26.9109454721
 21
5.2037642221
 31
0.0
  0
LINE
  5
D2
330
1F
100
AcDbEntity
  8
0
  6
Continuous
 62
     7
370
    15
100
AcDbLine
 10
-26.9109454721
 20
5.1887642087
 30
0.0
 11
-24.9109454962
 21
5.1887642087
 31
0.0
  0
LINE
  5
D3
330
1F
100
AcDbEntity
  8
0
  6
Continuous
 62
     7
370
    15
100
AcDbLine
 10
-24.9109454962
 20
5.1887642087
 30
0.0
 11
-24.9109454962
 21
5.2037642221
 31
0.0
  0
LINE
  5
D4
330
1F
100
AcDbEntity
  8
0
  6
Continuous
 62
     7
370
    15
100
AcDbLine
 10
-26.9109454721
 20
5.2037642221
 30
0.0
 11
-26.9109454721
 21
5.1887642087
 31
0.0
  0
LINE
  5
D5
330
1F
100
AcDbEntity
  8
0
  6
Continuous
 62
     7
370
    15
100
AcDbLine
 10
-26.9109454721
 20
5.1737641953
 30
0.0
 11
-24.9109454962
 21
5.1737641953
 31
0.0
  0
LINE
  5
D6
330
1F
100
AcDbEntity
  8
0
  6
Continuous
 62
     7
370
    15
100
AcDbLine
 10
-24.9109454962
 20
5.1737641953
 30
0.0
 11
-24.9109454962
 21
5.1887642087
 31
0.0
  0
LINE
  5
D7
330
1F
100
AcDbEntity
  8
0
  6
Continuous
 62
     7
370
    15
100
AcDbLine
 10
-26.9109454721
 20
5.1887642087
 30
0.0
 11
-26.9109454721
 21
5.1737641953
 31
0.0
  0
LINE
  5
D8
330
1F
100
AcDbEntity
  8
0
  6
Continuous
 62
     7
370
    15
100
AcDbLine
 10
-26.9109454721
 20
4.7487642316
 30
0.0
 11
-24.9109454962
 21
4.7487642316
 31
0.0
  0
LINE
  5
D9
330
1F
100
AcDbEntity
  8
0
  6
Continuous
 62
     7
370
    15
100
AcDbLine
 10
-24.9109454962
 20
4.7487642316
 30
0.0
 11
-24.9109454962
 21
5.1737641953
 31
0.0
  0
LINE
  5
DA
330
1F
100
AcDbEntity
  8
0
  6
Continuous
 62
     7
370
    15
100
AcDbLine
 10
-26.9109454721
 20
5.1737641953
 30
0.0
 11
-26.9109454721
 21
4.7487642316
 31
0.0
  0
LINE
  5
DB
330
1F
100
AcDbEntity
  8
0
  6
Continuous
 62
     7
370
    15
100
AcDbLine
 10
-26.9109454721
 20
4.7337642182
 30
0.0
 11
-24.9109454962
 21
4.7337642182
 31
0.0
  0
LINE
  5
DC
330
1F
100
AcDbEntity
  8
0
  6
Continuous
 62
     7
370
    15
100
AcDbLine
 10
-24.9109454962
 20
4.7337642182
 30
0.0
 11
-24.9109454962
 21
4.7487642316
 31
0.0
  0
LINE
  5
DD
330
1F
100
AcDbEntity
  8
0
  6
Continuous
 62
     7
370
    15
100
AcDbLine
 10
-26.9109454721
 20
4.7487642316
 30
0.0
 11
-26.9109454721
 21
4.7337642182
 31
0.0
  0
LINE
  5
DE
330
1F
100
AcDbEntity
  8
0
  6
Continuous
 62
     7
370
    15
100
AcDbLine
 10
-14.9109450304
 20
5.6327641795
 30
0.0
 11
-14.9109450304
 21
5.6527642218
 31
0.0
  0
LINE
  5
DF
330
1F
100
AcDbEntity
  8
0
  6
Continuous
 62
     7
370
    15
100
AcDbLine
 10
-16.9109454463
 20
5.6327641795
 30
0.0
 11
-14.9109450304
 21
5.6327641795
 31
0.0
  0
LINE
  5
E0
330
1F
100
AcDbEntity
  8
0
  6
Continuous
 62
     7
370
    15
100
AcDbLine
 10
-16.9109454463
 20
5.6327641795
 30
0.0
 11
-16.9109454463
 21
5.6527642218
 31
0.0
  0
LINE
  5
E1
330
1F
100
AcDbEntity
  8
0
  6
Continuous
 62
     7
370
    15
100
AcDbLine
 10
-16.9109454463
 20
5.6527642218
 30
0.0
 11
-14.9109450304
 21
5.6527642218
 31
0.0
  0
LINE
  5
E2
330
1F
100
AcDbEntity
  8
0
  6
Continuous
 62
     7
370
    15
100
AcDbLine
 10
-14.9109450304
 20
5.6527642218
 30
0.0
 11
-14.9109450304
 21
5.6605719316
 31
0.0
  0
LINE
  5
E3
330
1F
100
AcDbEntity
  8
0
  6
Continuous
 62
     7
370
    15
100
AcDbLine
 10
-16.9109454463
 20
5.6605719316
 30
0.0
 11
-16.9109454463
 21
5.6527642218
 31
0.0
  0
LINE
  5
E4
330
1F
100
AcDbEntity
  8
0
  6
Continuous
 62
     7
370
    15
100
AcDbLine
 10
-14.9109450304
 20
5.6605719316
 30
0.0
 11
-16.9109454463
 21
5.6605719316
 31
0.0
  0
LINE
  5
E5
330
1F
100
AcDbEntity
  8
0
  6
Continuous
 62
     7
370
    15
100
AcDbLine
 10
-14.9109450304
 20
5.6177641662
 30
0.0
 11
-14.9109450304
 21
5.6327641795
 31
0.0
  0
LINE
  5
E6
330
1F
100
AcDbEntity
  8
0
  6
Continuous
 62
     7
370
    15
100
AcDbLine
 10
-16.9109454463
 20
5.6177641662
 30
0.0
 11
-14.9109450304
 21
5.6177641662
 31
0.0
  0
LINE
  5
E7
330
1F
100
AcDbEntity
  8
0
  6
Continuous
 62
     7
370
    15
100
AcDbLine
 10
-16.9109454463
 20
5.6327641795
 30
0.0
 11
-16.9109454463
 21
5.6177641662
 31
0.0
  0
LINE
  5
E8
330
1F
100
AcDbEntity
  8
0
  6
Continuous
 62
     7
370
    15
100
AcDbLine
 10
-16.9109454463
 20
5.6677641619
 30
0.0
 11
-14.9109450304
 21
5.6677641619
 31
0.0
  0
LINE
  5
E9
330
1F
100
AcDbEntity
  8
0
  6
Continuous
 62
     7
370
    15
100
AcDbLine
 10
-14.9109450304
 20
5.6605719316
 30
0.0
 11
-14.9109450304
 21
5.6677641619
 31
0.0
  0
LINE
  5
EA
330
1F
100
AcDbEntity
  8
0
  6
Continuous
 62
     7
370
    15
100
AcDbLine
 10
-16.9109454463
 20
5.6677641619
 30
0.0
 11
-16.9109454463
 21
5.6605719316
 31
0.0
  0
LINE
  5
EB
330
1F
100
AcDbEntity
  8
0
  6
Continuous
 62
     7
370
    15
100
AcDbLine
 10
-16.9109454463
 20
5.6027641528
 30
0.0
 11
-14.9109450304
 21
5.6027641528
 31
0.0
  0
LINE
  5
EC
330
1F
100
AcDbEntity
  8
0
  6
Continuous
 62
     7
370
    15
100
AcDbLine
 10
-14.9109450304
 20
5.6027641528
 30
0.0
 11
-14.9109450304
 21
5.6177641662
 31
0.0
  0
LINE
  5
ED
330
1F
100
AcDbEntity
  8
0
  6
Continuous
 62
     7
370
    15
100
AcDbLine
 10
-16.9109454463
 20
5.6177641662
 30
0.0
 11
-16.9109454463
 21
5.6027641528
 31
0.0
  0
LINE
  5
EE
330
1F
100
AcDbEntity
  8
0
  6
Continuous
 62
     7
370
    15
100
AcDbLine
 10
-16.9109454463
 20
5.2037642221
 30
0.0
 11
-14.9109450304
 21
5.2037642221
 31
0.0
  0
LINE
  5
EF
330
1F
100
AcDbEntity
  8
0
  6
Continuous
 62
     7
370
    15
100
AcDbLine
 10
-14.9109450304
 20
5.2037642221
 30
0.0
 11
-14.9109450304
 21
5.6027641528
 31
0.0
  0
LINE
  5
F0
330
1F
100
AcDbEntity
  8
0
  6
Continuous
 62
     7
370
    15
100
AcDbLine
 10
-16.9109454463
 20
5.6027641528
 30
0.0
 11
-16.9109454463
 21
5.2037642221
 31
0.0
  0
LINE
  5
F1
330
1F
100
AcDbEntity
  8
0
  6
Continuous
 62
     7
370
    15
100
AcDbLine
 10
-16.9109454463
 20
5.1887642087
 30
0.0
 11
-14.9109450304
 21
5.1887642087
 31
0.0
  0
LINE
  5
F2
330
1F
100
AcDbEntity
  8
0
  6
Continuous
 62
     7
370
    15
100
AcDbLine
 10
-14.9109450304
 20
5.1887642087
 30
0.0
 11
-14.9109450304
 21
5.2037642221
 31
0.0
  0
LINE
  5
F3
330
1F
100
AcDbEntity
  8
0
  6
Continuous
 62
     7
370
    15
100
AcDbLine
 10
-16.9109454463
 20
5.2037642221
 30
0.0
 11
-16.9109454463
 21
5.1887642087
 31
0.0
  0
LINE
  5
F4
330
1F
100
AcDbEntity
  8
0
  6
Continuous
 62
     7
370
    15
100
AcDbLine
 10
-16.9109454463
 20
5.1737641953
 30
0.0
 11
-14.9109450304
 21
5.1737641953
 31
0.0
  0
LINE
  5
F5
330
1F
100
AcDbEntity
  8
0
  6
Continuous
 62
     7
370
    15
100
AcDbLine
 10
-14.9109450304
 20
5.1737641953
 30
0.0
 11
-14.9109450304
 21
5.1887642087
 31
0.0
  0
LINE
  5
F6
330
1F
100
AcDbEntity
  8
0
  6
Continuous
 62
     7
370
    15
100
AcDbLine
 10
-16.9109454463
 20
5.1887642087
 30
0.0
 11
-16.9109454463
 21
5.1737641953
 31
0.0
  0
LINE
  5
F7
330
1F
100
AcDbEntity
  8
0
  6
Continuous
 62
     7
370
    15
100
AcDbLine
 10
-16.9109454463
 20
4.7487642316
 30
0.0
 11
-14.9109450304
 21
4.7487642316
 31
0.0
  0
LINE
  5
F8
330
1F
100
AcDbEntity
  8
0
  6
Continuous
 62
     7
370
    15
100
AcDbLine
 10
-14.9109450304
 20
4.7487642316
 30
0.0
 11
-14.9109450304
 21
5.1737641953
 31
0.0
  0
LINE
  5
F9
330
1F
100
AcDbEntity
  8
0
  6
Continuous
 62
     7
370
    15
100
AcDbLine
 10
-16.9109454463
 20
5.1737641953
 30
0.0
 11
-16.9109454463
 21
4.7487642316
 31
0.0
  0
LINE
  5
FA
330
1F
100
AcDbEntity
  8
0
  6
Continuous
 62
     7
370
    15
100
AcDbLine
 10
-16.9109454463
 20
4.7337642182
 30
0.0
 11
-14.9109450304
 21
4.7337642182
 31
0.0
  0
LINE
  5
FB
330
1F
100
AcDbEntity
  8
0
  6
Continuous
 62
     7
370
    15
100
AcDbLine
 10
-14.9109450304
 20
4.7337642182
 30
0.0
 11
-14.9109450304
 21
4.7487642316
 31
0.0
  0
LINE
  5
FC
330
1F
100
AcDbEntity
  8
0
  6
Continuous
 62
     7
370
    15
100
AcDbLine
 10
-16.9109454463
 20
4.7487642316
 30
0.0
 11
-16.9109454463
 21
4.7337642182
 31
0.0
  0
LINE
  5
FD
330
1F
100
AcDbEntity
  8
0
  6
Continuous
 62
     7
370
    15
100
AcDbLine
 10
-4.9109458846
 20
5.6527642218
 30
0.0
 11
-4.9109458846
 21
5.6605719316
 31
0.0
  0
LINE
  5
FE
330
1F
100
AcDbEntity
  8
0
  6
Continuous
 62
     7
370
    15
100
AcDbLine
 10
-6.9109457138
 20
5.6527642218
 30
0.0
 11
-4.9109458846
 21
5.6527642218
 31
0.0
  0
LINE
  5
FF
330
1F
100
AcDbEntity
  8
0
  6
Continuous
 62
     7
370
    15
100
AcDbLine
 10
-6.9109457138
 20
5.6605719316
 30
0.0
 11
-6.9109457138
 21
5.6527642218
 31
0.0
  0
LINE
  5
100
330
1F
100
AcDbEntity
  8
0
  6
Continuous
 62
     7
370
    15
100
AcDbLine
 10
-4.9109458846
 20
5.6605719316
 30
0.0
 11
-6.9109457138
 21
5.6605719316
 31
0.0
  0
LINE
  5
101
330
1F
100
AcDbEntity
  8
0
  6
Continuous
 62
     7
370
    15
100
AcDbLine
 10
-4.9109458846
 20
5.6327641795
 30
0.0
 11
-4.9109458846
 21
5.6527642218
 31
0.0
  0
LINE
  5
102
330
1F
100
AcDbEntity
  8
0
  6
Continuous
 62
     7
370
    15
100
AcDbLine
 10
-6.9109457138
 20
5.6327641795
 30
0.0
 11
-4.9109458846
 21
5.6327641795
 31
0.0
  0
LINE
  5
103
330
1F
100
AcDbEntity
  8
0
  6
Continuous
 62
     7
370
    15
100
AcDbLine
 10
-6.9109457138
 20
5.6327641795
 30
0.0
 11
-6.9109457138
 21
5.6527642218
 31
0.0
  0
LINE
  5
104
330
1F
100
AcDbEntity
  8
0
  6
Continuous
 62
     7
370
    15
100
AcDbLine
 10
-4.9109458846
 20
5.6177641662
 30
0.0
 11
-4.9109458846
 21
5.6327641795
 31
0.0
  0
LINE
  5
105
330
1F
100
AcDbEntity
  8
0
  6
Continuous
 62
     7
370
    15
100
AcDbLine
 10
-6.9109457138
 20
5.6177641662
 30
0.0
 11
-4.9109458846
 21
5.6177641662
 31
0.0
  0
LINE
  5
106
330
1F
100
AcDbEntity
  8
0
  6
Continuous
 62
     7
370
    15
100
AcDbLine
 10
-6.9109457138
 20
5.6327641795
 30
0.0
 11
-6.9109457138
 21
5.6177641662
 31
0.0
  0
LINE
  5
107
330
1F
100
AcDbEntity
  8
0
  6
Continuous
 62
     7
370
    15
100
AcDbLine
 10
-6.9109457138
 20
5.6677641619
 30
0.0
 11
-4.9109458846
 21
5.6677641619
 31
0.0
  0
LINE
  5
108
330
1F
100
AcDbEntity
  8
0
  6
Continuous
 62
     7
370
    15
100
AcDbLine
 10
-4.9109458846
 20
5.6605719316
 30
0.0
 11
-4.9109458846
 21
5.6677641619
 31
0.0
  0
LINE
  5
109
330
1F
100
AcDbEntity
  8
0
  6
Continuous
 62
     7
370
    15
100
AcDbLine
 10
-6.9109457138
 20
5.6677641619
 30
0.0
 11
-6.9109457138
 21
5.6605719316
 31
0.0
  0
LINE
  5
10A
330
1F
100
AcDbEntity
  8
0
  6
Continuous
 62
     7
370
    15
100
AcDbLine
 10
-6.9109457138
 20
5.6027641528
 30
0.0
 11
-4.9109458846
 21
5.6027641528
 31
0.0
  0
LINE
  5
10B
330
1F
100
AcDbEntity
  8
0
  6
Continuous
 62
     7
370
    15
100
AcDbLine
 10
-4.9109458846
 20
5.6027641528
 30
0.0
 11
-4.9109458846
 21
5.6177641662
 31
0.0
  0
LINE
  5
10C
330
1F
100
AcDbEntity
  8
0
  6
Continuous
 62
     7
370
    15
100
AcDbLine
 10
-6.9109457138
 20
5.6177641662
 30
0.0
 11
-6.9109457138
 21
5.6027641528
 31
0.0
  0
LINE
  5
10D
330
1F
100
AcDbEntity
  8
0
  6
Continuous
 62
     7
370
    15
100
AcDbLine
 10
-6.9109457138
 20
5.2037642221
 30
0.0
 11
-4.9109458846
 21
5.2037642221
 31
0.0
  0
LINE
  5
10E
330
1F
100
AcDbEntity
  8
0
  6
Continuous
 62
     7
370
    15
100
AcDbLine
 10
-4.9109458846
 20
5.2037642221
 30
0.0
 11
-4.9109458846
 21
5.6027641528
 31
0.0
  0
LINE
  5
10F
330
1F
100
AcDbEntity
  8
0
  6
Continuous
 62
     7
370
    15
100
AcDbLine
 10
-6.9109457138
 20
5.6027641528
 30
0.0
 11
-6.9109457138
 21
5.2037642221
 31
0.0
  0
LINE
  5
110
330
1F
100
AcDbEntity
  8
0
  6
Continuous
 62
     7
370
    15
100
AcDbLine
 10
-6.9109457138
 20
5.1887642087
 30
0.0
 11
-4.9109458846
 21
5.1887642087
 31
0.0
  0
LINE
  5
111
330
1F
100
AcDbEntity
  8
0
  6
Continuous
 62
     7
370
    15
100
AcDbLine
 10
-4.9109458846
 20
5.1887642087
 30
0.0
 11
-4.9109458846
 21
5.2037642221
 31
0.0
  0
LINE
  5
112
330
1F
100
AcDbEntity
  8
0
  6
Continuous
 62
     7
370
    15
100
AcDbLine
 10
-6.9109457138
 20
5.2037642221
 30
0.0
 11
-6.9109457138
 21
5.1887642087
 31
0.0
  0
LINE
  5
113
330
1F
100
AcDbEntity
  8
0
  6
Continuous
 62
     7
370
    15
100
AcDbLine
 10
-6.9109457138
 20
5.1737641953
 30
0.0
 11
-4.9109458846
 21
5.1737641953
 31
0.0
  0
LINE
  5
114
330
1F
100
AcDbEntity
  8
0
  6
Continuous
 62
     7
370
    15
100
AcDbLine
 10
-4.9109458846
 20
5.1737641953
 30
0.0
 11
-4.9109458846
 21
5.1887642087
 31
0.0
  0
LINE
  5
115
330
1F
100
AcDbEntity
  8
0
  6
Continuous
 62
     7
370
    15
100
AcDbLine
 10
-6.9109457138
 20
5.1887642087
 30
0.0
 11
-6.9109457138
 21
5.1737641953
 31
0.0
  0
LINE
  5
116
330
1F
100
AcDbEntity
  8
0
  6
Continuous
 62
     7
370
    15
100
AcDbLine
 10
-6.9109457138
 20
4.7487642316
 30
0.0
 11
-4.9109458846
 21
4.7487642316
 31
0.0
  0
LINE
  5
117
330
1F
100
AcDbEntity
  8
0
  6
Continuous
 62
     7
370
    15
100
AcDbLine
 10
-4.9109458846
 20
4.7487642316
 30
0.0
 11
-4.9109458846
 21
5.1737641953
 31
0.0
  0
LINE
  5
118
330
1F
100
AcDbEntity
  8
0
  6
Continuous
 62
     7
370
    15
100
AcDbLine
 10
-6.9109457138
 20
5.1737641953
 30
0.0
 11
-6.9109457138
 21
4.7487642316
 31
0.0
  0
LINE
  5
119
330
1F
100
AcDbEntity
  8
0
  6
Continuous
 62
     7
370
    15
100
AcDbLine
 10
-6.9109457138
 20
4.7337642182
 30
0.0
 11
-4.9109458846
 21
4.7337642182
 31
0.0
  0
LINE
  5
11A
330
1F
100
AcDbEntity
  8
0
  6
Continuous
 62
     7
370
    15
100
AcDbLine
 10
-4.9109458846
 20
4.7337642182
 30
0.0
 11
-4.9109458846
 21
4.7487642316
 31
0.0
  0
LINE
  5
11B
330
1F
100
AcDbEntity
  8
0
  6
Continuous
 62
     7
370
    15
100
AcDbLine
 10
-6.9109457138
 20
4.7487642316
 30
0.0
 11
-6.9109457138
 21
4.7337642182
 31
0.0
  0
LINE
  5
11C
330
1F
100
AcDbEntity
  8
0
  6
Continuous
 62
     8
370
    15
100
AcDbLine
 10
-13.5379449981
 20
4.7867642459
 30
0.0
 11
-14.9109450304
 21
4.7867642459
 31
0.0
  0
LINE
  5
11D
330
1F
100
AcDbEntity
  8
0
  6
Continuous
 62
     8
370
    15
100
AcDbLine
 10
-16.9109454463
 20
4.7867642459
 30
0.0
 11
-24.9109454962
 21
4.7867642459
 31
0.0
  0
LINE
  5
11E
330
1F
100
AcDbEntity
  8
0
  6
Continuous
 62
     8
370
    15
100
AcDbLine
 10
-26.9109454721
 20
4.7867642459
 30
0.0
 11
-37.5359459578
 21
4.7867642459
 31
0.0
  0
LINE
  5
11F
330
1F
100
AcDbEntity
  8
0
  6
Continuous
 62
     8
370
    15
100
AcDbLine
 10
-13.5379449981
 20
5.4057642019
 30
0.0
 11
-14.9109450304
 21
5.4057642019
 31
0.0
  0
LINE
  5
120
330
1F
100
AcDbEntity
  8
0
  6
Continuous
 62
     8
370
    15
100
AcDbLine
 10
-16.9109454463
 20
5.4057642019
 30
0.0
 11
-24.9109454962
 21
5.4057642019
 31
0.0
  0
LINE
  5
121
330
1F
100
AcDbEntity
  8
0
  6
Continuous
 62
     8
370
    15
100
AcDbLine
 10
-26.9109454721
 20
5.4057642019
 30
0.0
 11
-37.5359459578
 21
5.4057642019
 31
0.0
  0
LINE
  5
122
330
1F
100
AcDbEntity
  8
0
  6
Continuous
 62
     8
370
    15
100
AcDbLine
 10
-37.5359459578
 20
5.3057642104
 30
0.0
 11
-26.9109454721
 21
5.3057642104
 31
0.0
  0
LINE
  5
123
330
1F
100
AcDbEntity
  8
0
  6
Continuous
 62
     8
370
    15
100
AcDbLine
 10
-24.9109454962
 20
5.3057642104
 30
0.0
 11
-16.9109454463
 21
5.3057642104
 31
0.0
  0
LINE
  5
124
330
1F
100
AcDbEntity
  8
0
  6
Continuous
 62
     8
370
    15
100
AcDbLine
 10
-14.9109450304
 20
5.3057642104
 30
0.0
 11
-13.5379449981
 21
5.3057642104
 31
0.0
  0
LINE
  5
125
330
1F
100
AcDbEntity
  8
0
  6
Continuous
 62
     8
370
    15
100
AcDbLine
 10
-13.5379449981
 20
5.6527642218
 30
0.0
 11
-14.9109450304
 21
5.6527642218
 31
0.0
  0
LINE
  5
126
330
1F
100
AcDbEntity
  8
0
  6
Continuous
 62
     8
370
    15
100
AcDbLine
 10
-16.9109454463
 20
5.6527642218
 30
0.0
 11
-24.9109454962
 21
5.6527642218
 31
0.0
  0
LINE
  5
127
330
1F
100
AcDbEntity
  8
0
  6
Continuous
 62
     8
370
    15
100
AcDbLine
 10
-26.9109454721
 20
5.6527642218
 30
0.0
 11
-37.5359459578
 21
5.6527642218
 31
0.0
  0
LINE
  5
128
330
1F
100
AcDbEntity
  8
0
  6
Continuous
 62
     8
370
    15
100
AcDbLine
 10
-37.5359459578
 20
5.557764186
 30
0.0
 11
-26.9109454721
 21
5.557764186
 31
0.0
  0
LINE
  5
129
330
1F
100
AcDbEntity
  8
0
  6
Continuous
 62
     8
370
    15
100
AcDbLine
 10
-24.9109454962
 20
5.557764186
 30
0.0
 11
-16.9109454463
 21
5.557764186
 31
0.0
  0
LINE
  5
12A
330
1F
100
AcDbEntity
  8
0
  6
Continuous
 62
     8
370
    15
100
AcDbLine
 10
-14.9109450304
 20
5.557764186
 30
0.0
 11
-13.5379449981
 21
5.557764186
 31
0.0
  0
LINE
  5
12B
330
1F
100
AcDbEntity
  8
0
  6
Continuous
 62
     8
370
    15
100
AcDbLine
 10
-37.2239449754
 20
5.4357641553
 30
0.0
 11
-26.9109454721
 21
5.4357641553
 31
0.0
  0
LINE
  5
12C
330
1F
100
AcDbEntity
  8
0
  6
Continuous
 62
     8
370
    15
100
AcDbLine
 10
-24.9109454962
 20
5.4357641553
 30
0.0
 11
-16.9109454463
 21
5.4357641553
 31
0.0
  0
LINE
  5
12D
330
1F
100
AcDbEntity
  8
0
  6
Continuous
 62
     8
370
    15
100
AcDbLine
 10
-14.9109450304
 20
5.4357641553
 30
0.0
 11
-13.8499459805
 21
5.4357641553
 31
0.0
  0
LINE
  5
12E
330
1F
100
AcDbEntity
  8
0
  6
CENTER
 62
     7
370
     0
100
AcDbLine
 10
-22.8860524661
 20
2.4431271618
 30
0.0
 11
-22.8860524661
 21
8.3855493696
 31
0.0
  0
LINE
  5
12F
330
1F
100
AcDbEntity
  8
0
  6
Continuous
 62
     7
370
     0
100
AcDbLine
 10
-23.3860524661
 20
2.5218673193
 30
0.0
 11
-22.8860524661
 21
2.5218673193
 31
0.0
  0
SOLID
  5
130
330
1F
100
AcDbEntity
  8
0
  6
Continuous
 62
     7
370
     0
100
AcDbTrace
 10
-22.8860524661
 20
2.5218673193
 30
0.0
 11
-23.1360524661
 21
2.5618673193
 31
0.0
 12
-23.1360524661
 22
2.4818673193
 32
0.0
 13
-23.1360524661
 23
2.4818673193
 33
0.0
  0
LINE
  5
131
330
1F
100
AcDbEntity
  8
0
  6
Continuous
 62
     7
370
     0
100
AcDbLine
 10
-23.3860524661
 20
8.3068092121
 30
0.0
 11
-22.8860524661
 21
8.3068092121
 31
0.0
  0
SOLID
  5
132
330
1F
100
AcDbEntity
  8
0
  6
Continuous
 62
     7
370
     0
100
AcDbTrace
 10
-22.8860524661
 20
8.3068092121
 30
0.0
 11
-23.1360524661
 21
8.3468092121
 31
0.0
 12
-23.1360524661
 22
8.2668092121
 32
0.0
 13
-23.1360524661
 23
8.2668092121
 33
0.0
  0
MTEXT
  5
134
330
1F
100
AcDbEntity
  8
0
  6
Continuous
 62
     7
100
AcDbMText
 10
-23.3860524661
 20
2.7406602277
 30
0.0
 40
0.1377952756
 41
0.0
 71
     1
 72
     1
  1
A
  7
SLDTEXTSTYLE0
 73
     1
 44
1.0
  0
MTEXT
  5
135
330
1F
100
AcDbEntity
  8
0
  6
Continuous
 62
     7
100
AcDbMText
 10
-23.3860524661
 20
8.5256021205
 30
0.0
 40
0.1377952756
 41
0.0
 71
     1
 72
     1
  1
A
  7
SLDTEXTSTYLE0
 73
     1
 44
1.0
  0
ARC
  5
136
330
1F
100
AcDbEntity
  8
0
  6
Continuous
 62
     7
370
    15
100
AcDbCircle
 10
2.5100106587
 20
5.6527641857
 30
0.0
 40
0.0149999999999997
100
AcDbArc
 50
90.0
 51
180.0
  0
LINE
  5
137
330
1F
100
AcDbEntity
  8
0
  6
Continuous
 62
     7
370
    15
100
AcDbLine
 10
2.4950106587
 20
5.6527641857
 30
0.0
 11
2.4950106587
 21
5.5577641857
 31
0.0
  0
ARC
  5
138
330
1F
100
AcDbEntity
  8
0
  6
Continuous
 62
     7
370
    15
100
AcDbCircle
 10
2.5100106587
 20
5.5577641857
 30
0.0
 40
0.0150000000000006
100
AcDbArc
 50
180.0
 51
270.0
  0
LINE
  5
139
330
1F
100
AcDbEntity
  8
0
  6
Continuous
 62
     7
370
    15
100
AcDbLine
 10
2.5100106587
 20
5.5427641857
 30
0.0
 11
2.6020106587
 21
5.5427641857
 31
0.0
  0
ARC
  5
13A
330
1F
100
AcDbEntity
  8
0
  6
Continuous
 62
     7
370
    15
100
AcDbCircle
 10
2.6020106587
 20
5.5577641857
 30
0.0
 40
0.0150000000000006
100
AcDbArc
 50
270.0
 51
0.0
  0
LINE
  5
13B
330
1F
100
AcDbEntity
  8
0
  6
Continuous
 62
     7
370
    15
100
AcDbLine
 10
2.6170106587
 20
5.5577641857
 30
0.0
 11
2.6170106587
 21
5.5907641857
 31
0.0
  0
ARC
  5
13C
330
1F
100
AcDbEntity
  8
0
  6
Continuous
 62
     7
370
    15
100
AcDbCircle
 10
2.6320106587
 20
5.5907641857
 30
0.0
 40
0.0150000000000006
100
AcDbArc
 50
90.0
 51
180.0
  0
LINE
  5
13D
330
1F
100
AcDbEntity
  8
0
  6
Continuous
 62
     7
370
    15
100
AcDbLine
 10
2.6320106587
 20
5.6057641857
 30
0.0
 11
2.7920106587
 21
5.6057641857
 31
0.0
  0
ARC
  5
13E
330
1F
100
AcDbEntity
  8
0
  6
Continuous
 62
     7
370
    15
100
AcDbCircle
 10
2.7920106587
 20
5.5907641857
 30
0.0
 40
0.0149999999999997
100
AcDbArc
 50
0.0
 51
90.0
  0
LINE
  5
13F
330
1F
100
AcDbEntity
  8
0
  6
Continuous
 62
     7
370
    15
100
AcDbLine
 10
2.8070106587
 20
5.5907641857
 30
0.0
 11
2.8070106587
 21
5.4357641857
 31
0.0
  0
ARC
  5
140
330
1F
100
AcDbEntity
  8
0
  6
Continuous
 62
     7
370
    15
100
AcDbCircle
 10
2.7920106587
 20
5.4357641857
 30
0.0
 40
0.0150000000000001
100
AcDbArc
 50
270.0
 51
0.0
  0
LINE
  5
141
330
1F
100
AcDbEntity
  8
0
  6
Continuous
 62
     7
370
    15
100
AcDbLine
 10
2.7920106587
 20
5.4207641857
 30
0.0
 11
2.2600106587
 21
5.4207641857
 31
0.0
  0
ARC
  5
142
330
1F
100
AcDbEntity
  8
0
  6
Continuous
 62
     7
370
    15
100
AcDbCircle
 10
2.2600106587
 20
5.4057641857
 30
0.0
 40
0.0149999999999997
100
AcDbArc
 50
90.0
 51
180.0
  0
LINE
  5
143
330
1F
100
AcDbEntity
  8
0
  6
Continuous
 62
     7
370
    15
100
AcDbLine
 10
2.2450106587
 20
5.4057641857
 30
0.0
 11
2.2450106587
 21
5.3057641857
 31
0.0
  0
ARC
  5
144
330
1F
100
AcDbEntity
  8
0
  6
Continuous
 62
     7
370
    15
100
AcDbCircle
 10
2.2600106587
 20
5.3057641857
 30
0.0
 40
0.0149999999999997
100
AcDbArc
 50
180.0
 51
270.0
  0
LINE
  5
145
330
1F
100
AcDbEntity
  8
0
  6
Continuous
 62
     7
370
    15
100
AcDbLine
 10
2.2600106587
 20
5.2907641857
 30
0.0
 11
2.2920106587
 21
5.2907641857
 31
0.0
  0
ARC
  5
146
330
1F
100
AcDbEntity
  8
0
  6
Continuous
 62
     7
370
    15
100
AcDbCircle
 10
2.2920106587
 20
5.3057641857
 30
0.0
 40
0.0150000000000015
100
AcDbArc
 50
270.0
 51
0.0
  0
LINE
  5
147
330
1F
100
AcDbEntity
  8
0
  6
Continuous
 62
     7
370
    15
100
AcDbLine
 10
2.3070106587
 20
5.3057641857
 30
0.0
 11
2.3070106587
 21
5.3437641857
 31
0.0
  0
ARC
  5
148
330
1F
100
AcDbEntity
  8
0
  6
Continuous
 62
     7
370
    15
100
AcDbCircle
 10
2.3220106587
 20
5.3437641857
 30
0.0
 40
0.0149999999999997
100
AcDbArc
 50
90.0
 51
180.0
  0
LINE
  5
149
330
1F
100
AcDbEntity
  8
0
  6
Continuous
 62
     7
370
    15
100
AcDbLine
 10
2.3220106587
 20
5.3587641857
 30
0.0
 11
2.3550106587
 21
5.3587641857
 31
0.0
  0
ARC
  5
14A
330
1F
100
AcDbEntity
  8
0
  6
Continuous
 62
     7
370
    15
100
AcDbCircle
 10
2.3550106587
 20
5.3437641857
 30
0.0
 40
0.0150000000000001
100
AcDbArc
 50
0.0
 51
90.0
  0
LINE
  5
14B
330
1F
100
AcDbEntity
  8
0
  6
Continuous
 62
     7
370
    15
100
AcDbLine
 10
2.3700106587
 20
5.3437641857
 30
0.0
 11
2.3700106587
 21
4.7487641857
 31
0.0
  0
ARC
  5
14C
330
1F
100
AcDbEntity
  8
0
  6
Continuous
 62
     7
370
    15
100
AcDbCircle
 10
2.3550106587
 20
4.7487641857
 30
0.0
 40
0.0150000000000006
100
AcDbArc
 50
270.0
 51
0.0
  0
LINE
  5
14D
330
1F
100
AcDbEntity
  8
0
  6
Continuous
 62
     7
370
    15
100
AcDbLine
 10
2.3550106587
 20
4.7337641857
 30
0.0
 11
2.3220106587
 21
4.7337641857
 31
0.0
  0
ARC
  5
14E
330
1F
100
AcDbEntity
  8
0
  6
Continuous
 62
     7
370
    15
100
AcDbCircle
 10
2.3220106587
 20
4.7487641857
 30
0.0
 40
0.0150000000000006
100
AcDbArc
 50
180.0
 51
270.0
  0
LINE
  5
14F
330
1F
100
AcDbEntity
  8
0
  6
Continuous
 62
     7
370
    15
100
AcDbLine
 10
2.3070106587
 20
4.7487641857
 30
0.0
 11
2.3070106587
 21
4.7867641857
 31
0.0
  0
ARC
  5
150
330
1F
100
AcDbEntity
  8
0
  6
Continuous
 62
     7
370
    15
100
AcDbCircle
 10
2.2920106587
 20
4.7867641857
 30
0.0
 40
0.0149999999999997
100
AcDbArc
 50
0.0
 51
90.0
  0
LINE
  5
151
330
1F
100
AcDbEntity
  8
0
  6
Continuous
 62
     7
370
    15
100
AcDbLine
 10
2.2920106587
 20
4.8017641857
 30
0.0
 11
2.2600106587
 21
4.8017641857
 31
0.0
  0
ARC
  5
152
330
1F
100
AcDbEntity
  8
0
  6
Continuous
 62
     7
370
    15
100
AcDbCircle
 10
2.2600106587
 20
4.7867641857
 30
0.0
 40
0.0149999999999997
100
AcDbArc
 50
90.0
 51
180.0
  0
LINE
  5
153
330
1F
100
AcDbEntity
  8
0
  6
Continuous
 62
     7
370
    15
100
AcDbLine
 10
2.2450106587
 20
4.7867641857
 30
0.0
 11
2.2450106587
 21
4.6867641857
 31
0.0
  0
ARC
  5
154
330
1F
100
AcDbEntity
  8
0
  6
Continuous
 62
     7
370
    15
100
AcDbCircle
 10
2.2600106587
 20
4.6867641857
 30
0.0
 40
0.0150000000000006
100
AcDbArc
 50
180.0
 51
270.0
  0
LINE
  5
155
330
1F
100
AcDbEntity
  8
0
  6
Continuous
 62
     7
370
    15
100
AcDbLine
 10
2.2600106587
 20
4.6717641857
 30
0.0
 11
2.4170106587
 21
4.6717641857
 31
0.0
  0
ARC
  5
156
330
1F
100
AcDbEntity
  8
0
  6
Continuous
 62
     7
370
    15
100
AcDbCircle
 10
2.4170106587
 20
4.6867641857
 30
0.0
 40
0.0150000000000006
100
AcDbArc
 50
270.0
 51
0.0
  0
LINE
  5
157
330
1F
100
AcDbEntity
  8
0
  6
Continuous
 62
     7
370
    15
100
AcDbLine
 10
2.4320106587
 20
4.6867641857
 30
0.0
 11
2.4320106587
 21
5.3437641857
 31
0.0
  0
ARC
  5
158
330
1F
100
AcDbEntity
  8
0
  6
Continuous
 62
     7
370
    15
100
AcDbCircle
 10
2.4470106587
 20
5.3437641857
 30
0.0
 40
0.0150000000000001
100
AcDbArc
 50
90.0
 51
180.0
  0
LINE
  5
159
330
1F
100
AcDbEntity
  8
0
  6
Continuous
 62
     7
370
    15
100
AcDbLine
 10
2.4470106587
 20
5.3587641857
 30
0.0
 11
2.7920106587
 21
5.3587641857
 31
0.0
  0
ARC
  5
15A
330
1F
100
AcDbEntity
  8
0
  6
Continuous
 62
     7
370
    15
100
AcDbCircle
 10
2.7920106587
 20
5.3437641857
 30
0.0
 40
0.0149999999999997
100
AcDbArc
 50
0.0
 51
90.0
  0
LINE
  5
15B
330
1F
100
AcDbEntity
  8
0
  6
Continuous
 62
     7
370
    15
100
AcDbLine
 10
2.8070106587
 20
5.3437641857
 30
0.0
 11
2.8070106587
 21
3.7427641857
 31
0.0
  0
ARC
  5
15C
330
1F
100
AcDbEntity
  8
0
  6
Continuous
 62
     7
370
    15
100
AcDbCircle
 10
2.8220106587
 20
3.7427641857
 30
0.0
 40
0.0149999999999997
100
AcDbArc
 50
180.0
 51
270.0
  0
LINE
  5
15D
330
1F
100
AcDbEntity
  8
0
  6
Continuous
 62
     7
370
    15
100
AcDbLine
 10
2.8220106587
 20
3.7277641857
 30
0.0
 11
2.8540106587
 21
3.7277641857
 31
0.0
  0
ARC
  5
15E
330
1F
100
AcDbEntity
  8
0
  6
Continuous
 62
     7
370
    15
100
AcDbCircle
 10
2.8540106587
 20
3.7427641857
 30
0.0
 40
0.0150000000000001
100
AcDbArc
 50
270.0
 51
0.0
  0
LINE
  5
15F
330
1F
100
AcDbEntity
  8
0
  6
Continuous
 62
     7
370
    15
100
AcDbLine
 10
2.8690106587
 20
3.7427641857
 30
0.0
 11
2.8690106587
 21
4.8907641857
 31
0.0
  0
ARC
  5
160
330
1F
100
AcDbEntity
  8
0
  6
Continuous
 62
     7
370
    15
100
AcDbCircle
 10
2.8840106587
 20
4.8907641857
 30
0.0
 40
0.0150000000000006
100
AcDbArc
 50
90.0
 51
180.0
  0
LINE
  5
161
330
1F
100
AcDbEntity
  8
0
  6
Continuous
 62
     7
370
    15
100
AcDbLine
 10
2.8840106587
 20
4.9057641857
 30
0.0
 11
3.0420106587
 21
4.9057641857
 31
0.0
  0
ARC
  5
162
330
1F
100
AcDbEntity
  8
0
  6
Continuous
 62
     7
370
    15
100
AcDbCircle
 10
3.0420106587
 20
4.9207641857
 30
0.0
 40
0.0149999999999997
100
AcDbArc
 50
270.0
 51
0.0
  0
LINE
  5
163
330
1F
100
AcDbEntity
  8
0
  6
Continuous
 62
     7
370
    15
100
AcDbLine
 10
3.0570106587
 20
4.9207641857
 30
0.0
 11
3.0570106587
 21
4.9527641857
 31
0.0
  0
ARC
  5
164
330
1F
100
AcDbEntity
  8
0
  6
Continuous
 62
     7
370
    15
100
AcDbCircle
 10
3.0420106587
 20
4.9527641857
 30
0.0
 40
0.0149999999999997
100
AcDbArc
 50
0.0
 51
90.0
  0
LINE
  5
165
330
1F
100
AcDbEntity
  8
0
  6
Continuous
 62
     7
370
    15
100
AcDbLine
 10
3.0420106587
 20
4.9677641857
 30
0.0
 11
2.8840106587
 21
4.9677641857
 31
0.0
  0
ARC
  5
166
330
1F
100
AcDbEntity
  8
0
  6
Continuous
 62
     7
370
    15
100
AcDbCircle
 10
2.8840106587
 20
4.9827641857
 30
0.0
 40
0.0150000000000001
100
AcDbArc
 50
180.0
 51
270.0
  0
LINE
  5
167
330
1F
100
AcDbEntity
  8
0
  6
Continuous
 62
     7
370
    15
100
AcDbLine
 10
2.8690106587
 20
4.9827641857
 30
0.0
 11
2.8690106587
 21
5.1517641857
 31
0.0
  0
ARC
  5
168
330
1F
100
AcDbEntity
  8
0
  6
Continuous
 62
     7
370
    15
100
AcDbCircle
 10
2.8840106587
 20
5.1517641857
 30
0.0
 40
0.0149999999999997
100
AcDbArc
 50
90.0
 51
180.0
  0
LINE
  5
169
330
1F
100
AcDbEntity
  8
0
  6
Continuous
 62
     7
370
    15
100
AcDbLine
 10
2.8840106587
 20
5.1667641857
 30
0.0
 11
3.1040106587
 21
5.1667641857
 31
0.0
  0
ARC
  5
16A
330
1F
100
AcDbEntity
  8
0
  6
Continuous
 62
     7
370
    15
100
AcDbCircle
 10
3.1040106587
 20
5.1817641857
 30
0.0
 40
0.0150000000000001
100
AcDbArc
 50
270.0
 51
0.0
  0
LINE
  5
16B
330
1F
100
AcDbEntity
  8
0
  6
Continuous
 62
     7
370
    15
100
AcDbLine
 10
3.1190106587
 20
5.1817641857
 30
0.0
 11
3.1190106587
 21
5.2137641857
 31
0.0
  0
ARC
  5
16C
330
1F
100
AcDbEntity
  8
0
  6
Continuous
 62
     7
370
    15
100
AcDbCircle
 10
3.1040106587
 20
5.2137641857
 30
0.0
 40
0.0150000000000006
100
AcDbArc
 50
0.0
 51
90.0
  0
LINE
  5
16D
330
1F
100
AcDbEntity
  8
0
  6
Continuous
 62
     7
370
    15
100
AcDbLine
 10
3.1040106587
 20
5.2287641857
 30
0.0
 11
2.8840106587
 21
5.2287641857
 31
0.0
  0
ARC
  5
16E
330
1F
100
AcDbEntity
  8
0
  6
Continuous
 62
     7
370
    15
100
AcDbCircle
 10
2.8840106587
 20
5.2437641857
 30
0.0
 40
0.0150000000000006
100
AcDbArc
 50
180.0
 51
270.0
  0
LINE
  5
16F
330
1F
100
AcDbEntity
  8
0
  6
Continuous
 62
     7
370
    15
100
AcDbLine
 10
2.8690106587
 20
5.2437641857
 30
0.0
 11
2.8690106587
 21
6.3847641857
 31
0.0
  0
LINE
  5
170
330
1F
100
AcDbEntity
  8
0
  6
Continuous
 62
     7
370
    15
100
AcDbLine
 10
2.8690106587
 20
6.3847641857
 30
0.0
 11
2.8640106587
 21
6.3847641857
 31
0.0
  0
ARC
  5
171
330
1F
100
AcDbEntity
  8
0
  6
Continuous
 62
     7
370
    15
100
AcDbCircle
 10
2.8640106587
 20
6.3597641857
 30
0.0
 40
0.0249999999999999
100
AcDbArc
 50
90.0
 51
180.0
  0
LINE
  5
172
330
1F
100
AcDbEntity
  8
0
  6
Continuous
 62
     7
370
    15
100
AcDbLine
 10
2.8390106587
 20
6.3597641857
 30
0.0
 11
2.8390106587
 21
6.3527641857
 31
0.0
  0
LINE
  5
173
330
1F
100
AcDbEntity
  8
0
  6
Continuous
 62
     7
370
    15
100
AcDbLine
 10
2.8390106587
 20
6.3527641857
 30
0.0
 11
1.2440106587
 21
6.3327641857
 31
0.0
  0
LINE
  5
174
330
1F
100
AcDbEntity
  8
0
  6
Continuous
 62
     7
370
    15
100
AcDbLine
 10
1.2440106587
 20
6.3327641857
 30
0.0
 11
1.2440106587
 21
6.3177641857
 31
0.0
  0
ARC
  5
175
330
1F
100
AcDbEntity
  8
0
  6
Continuous
 62
     7
370
    15
100
AcDbCircle
 10
1.2690106587
 20
6.3177641857
 30
0.0
 40
0.0249999999999997
100
AcDbArc
 50
180.0
 51
270.0
  0
LINE
  5
176
330
1F
100
AcDbEntity
  8
0
  6
Continuous
 62
     7
370
    15
100
AcDbLine
 10
1.2690106587
 20
6.2927641857
 30
0.0
 11
2.7920106587
 21
6.2927641857
 31
0.0
  0
ARC
  5
177
330
1F
100
AcDbEntity
  8
0
  6
Continuous
 62
     7
370
    15
100
AcDbCircle
 10
2.7920106587
 20
6.2777641857
 30
0.0
 40
0.0150000000000001
100
AcDbArc
 50
0.0
 51
90.0
  0
LINE
  5
178
330
1F
100
AcDbEntity
  8
0
  6
Continuous
 62
     7
370
    15
100
AcDbLine
 10
2.8070106587
 20
6.2777641857
 30
0.0
 11
2.8070106587
 21
5.6827641857
 31
0.0
  0
ARC
  5
179
330
1F
100
AcDbEntity
  8
0
  6
Continuous
 62
     7
370
    15
100
AcDbCircle
 10
2.7920106587
 20
5.6827641857
 30
0.0
 40
0.0150000000000001
100
AcDbArc
 50
270.0
 51
0.0
  0
LINE
  5
17A
330
1F
100
AcDbEntity
  8
0
  6
Continuous
 62
     7
370
    15
100
AcDbLine
 10
2.7920106587
 20
5.6677641857
 30
0.0
 11
2.5100106587
 21
5.6677641857
 31
0.0
  0
ARC
  5
17B
330
1F
100
AcDbEntity
  8
0
  6
Continuous
 62
     7
370
    15
100
AcDbCircle
 10
8.4780106587
 20
5.5577641857
 30
0.0
 40
0.0150000000000006
100
AcDbArc
 50
270.0
 51
0.0
  0
LINE
  5
17C
330
1F
100
AcDbEntity
  8
0
  6
Continuous
 62
     7
370
    15
100
AcDbLine
 10
8.4930106587
 20
5.5577641857
 30
0.0
 11
8.4930106587
 21
5.6527641857
 31
0.0
  0
ARC
  5
17D
330
1F
100
AcDbEntity
  8
0
  6
Continuous
 62
     7
370
    15
100
AcDbCircle
 10
8.4780106587
 20
5.6527641857
 30
0.0
 40
0.0150000000000006
100
AcDbArc
 50
0.0
 51
90.0
  0
LINE
  5
17E
330
1F
100
AcDbEntity
  8
0
  6
Continuous
 62
     7
370
    15
100
AcDbLine
 10
8.4780106587
 20
5.6677641857
 30
0.0
 11
8.1960106587
 21
5.6677641857
 31
0.0
  0
ARC
  5
17F
330
1F
100
AcDbEntity
  8
0
  6
Continuous
 62
     7
370
    15
100
AcDbCircle
 10
8.1960106587
 20
5.6827641857
 30
0.0
 40
0.0150000000000006
100
AcDbArc
 50
180.0
 51
270.0
  0
LINE
  5
180
330
1F
100
AcDbEntity
  8
0
  6
Continuous
 62
     7
370
    15
100
AcDbLine
 10
8.1810106587
 20
5.6827641857
 30
0.0
 11
8.1810106587
 21
6.2777641857
 31
0.0
  0
ARC
  5
181
330
1F
100
AcDbEntity
  8
0
  6
Continuous
 62
     7
370
    15
100
AcDbCircle
 10
8.1960106587
 20
6.2777641857
 30
0.0
 40
0.0150000000000006
100
AcDbArc
 50
90.0
 51
180.0
  0
LINE
  5
182
330
1F
100
AcDbEntity
  8
0
  6
Continuous
 62
     7
370
    15
100
AcDbLine
 10
8.1960106587
 20
6.2927641857
 30
0.0
 11
9.7190106587
 21
6.2927641857
 31
0.0
  0
ARC
  5
183
330
1F
100
AcDbEntity
  8
0
  6
Continuous
 62
     7
370
    15
100
AcDbCircle
 10
9.7190106587
 20
6.3177641857
 30
0.0
 40
0.0249999999999995
100
AcDbArc
 50
270.0
 51
0.0
  0
LINE
  5
184
330
1F
100
AcDbEntity
  8
0
  6
Continuous
 62
     7
370
    15
100
AcDbLine
 10
9.7440106587
 20
6.3177641857
 30
0.0
 11
9.7440106587
 21
6.3327641857
 31
0.0
  0
LINE
  5
185
330
1F
100
AcDbEntity
  8
0
  6
Continuous
 62
     7
370
    15
100
AcDbLine
 10
9.7440106587
 20
6.3327641857
 30
0.0
 11
8.1490106587
 21
6.3527641857
 31
0.0
  0
LINE
  5
186
330
1F
100
AcDbEntity
  8
0
  6
Continuous
 62
     7
370
    15
100
AcDbLine
 10
8.1490106587
 20
6.3527641857
 30
0.0
 11
8.1490106587
 21
6.3597641857
 31
0.0
  0
ARC
  5
187
330
1F
100
AcDbEntity
  8
0
  6
Continuous
 62
     7
370
    15
100
AcDbCircle
 10
8.1240106587
 20
6.3597641857
 30
0.0
 40
0.0249999999999995
100
AcDbArc
 50
0.0
 51
90.0
  0
LINE
  5
188
330
1F
100
AcDbEntity
  8
0
  6
Continuous
 62
     7
370
    15
100
AcDbLine
 10
8.1240106587
 20
6.3847641857
 30
0.0
 11
8.1190106587
 21
6.3847641857
 31
0.0
  0
LINE
  5
189
330
1F
100
AcDbEntity
  8
0
  6
Continuous
 62
     7
370
    15
100
AcDbLine
 10
8.1190106587
 20
6.3847641857
 30
0.0
 11
8.1190106587
 21
5.2437641857
 31
0.0
  0
ARC
  5
18A
330
1F
100
AcDbEntity
  8
0
  6
Continuous
 62
     7
370
    15
100
AcDbCircle
 10
8.1040106587
 20
5.2437641857
 30
0.0
 40
0.0150000000000015
100
AcDbArc
 50
270.0
 51
0.0
  0
LINE
  5
18B
330
1F
100
AcDbEntity
  8
0
  6
Continuous
 62
     7
370
    15
100
AcDbLine
 10
8.1040106587
 20
5.2287641857
 30
0.0
 11
7.8840106587
 21
5.2287641857
 31
0.0
  0
ARC
  5
18C
330
1F
100
AcDbEntity
  8
0
  6
Continuous
 62
     7
370
    15
100
AcDbCircle
 10
7.8840106587
 20
5.2137641857
 30
0.0
 40
0.0150000000000006
100
AcDbArc
 50
90.0
 51
180.0
  0
LINE
  5
18D
330
1F
100
AcDbEntity
  8
0
  6
Continuous
 62
     7
370
    15
100
AcDbLine
 10
7.8690106587
 20
5.2137641857
 30
0.0
 11
7.8690106587
 21
5.1817641857
 31
0.0
  0
ARC
  5
18E
330
1F
100
AcDbEntity
  8
0
  6
Continuous
 62
     7
370
    15
100
AcDbCircle
 10
7.8840106587
 20
5.1817641857
 30
0.0
 40
0.0150000000000006
100
AcDbArc
 50
180.0
 51
270.0
  0
LINE
  5
18F
330
1F
100
AcDbEntity
  8
0
  6
Continuous
 62
     7
370
    15
100
AcDbLine
 10
7.8840106587
 20
5.1667641857
 30
0.0
 11
8.1040106587
 21
5.1667641857
 31
0.0
  0
ARC
  5
190
330
1F
100
AcDbEntity
  8
0
  6
Continuous
 62
     7
370
    15
100
AcDbCircle
 10
8.1040106587
 20
5.1517641857
 30
0.0
 40
0.0150000000000006
100
AcDbArc
 50
0.0
 51
90.0
  0
LINE
  5
191
330
1F
100
AcDbEntity
  8
0
  6
Continuous
 62
     7
370
    15
100
AcDbLine
 10
8.1190106587
 20
5.1517641857
 30
0.0
 11
8.1190106587
 21
4.9827641857
 31
0.0
  0
ARC
  5
192
330
1F
100
AcDbEntity
  8
0
  6
Continuous
 62
     7
370
    15
100
AcDbCircle
 10
8.1040106587
 20
4.9827641857
 30
0.0
 40
0.0150000000000006
100
AcDbArc
 50
270.0
 51
0.0
  0
LINE
  5
193
330
1F
100
AcDbEntity
  8
0
  6
Continuous
 62
     7
370
    15
100
AcDbLine
 10
8.1040106587
 20
4.9677641857
 30
0.0
 11
7.9460106587
 21
4.9677641857
 31
0.0
  0
ARC
  5
194
330
1F
100
AcDbEntity
  8
0
  6
Continuous
 62
     7
370
    15
100
AcDbCircle
 10
7.9460106587
 20
4.9527641857
 30
0.0
 40
0.0150000000000006
100
AcDbArc
 50
90.0
 51
180.0
  0
LINE
  5
195
330
1F
100
AcDbEntity
  8
0
  6
Continuous
 62
     7
370
    15
100
AcDbLine
 10
7.9310106587
 20
4.9527641857
 30
0.0
 11
7.9310106587
 21
4.9207641857
 31
0.0
  0
ARC
  5
196
330
1F
100
AcDbEntity
  8
0
  6
Continuous
 62
     7
370
    15
100
AcDbCircle
 10
7.9460106587
 20
4.9207641857
 30
0.0
 40
0.0150000000000006
100
AcDbArc
 50
180.0
 51
270.0
  0
LINE
  5
197
330
1F
100
AcDbEntity
  8
0
  6
Continuous
 62
     7
370
    15
100
AcDbLine
 10
7.9460106587
 20
4.9057641857
 30
0.0
 11
8.1040106587
 21
4.9057641857
 31
0.0
  0
ARC
  5
198
330
1F
100
AcDbEntity
  8
0
  6
Continuous
 62
     7
370
    15
100
AcDbCircle
 10
8.1040106587
 20
4.8907641857
 30
0.0
 40
0.0150000000000006
100
AcDbArc
 50
0.0
 51
90.0
  0
LINE
  5
199
330
1F
100
AcDbEntity
  8
0
  6
Continuous
 62
     7
370
    15
100
AcDbLine
 10
8.1190106587
 20
4.8907641857
 30
0.0
 11
8.1190106587
 21
3.7427641857
 31
0.0
  0
ARC
  5
19A
330
1F
100
AcDbEntity
  8
0
  6
Continuous
 62
     7
370
    15
100
AcDbCircle
 10
8.1340106587
 20
3.7427641857
 30
0.0
 40
0.0150000000000006
100
AcDbArc
 50
180.0
 51
270.0
  0
LINE
  5
19B
330
1F
100
AcDbEntity
  8
0
  6
Continuous
 62
     7
370
    15
100
AcDbLine
 10
8.1340106587
 20
3.7277641857
 30
0.0
 11
8.1660106587
 21
3.7277641857
 31
0.0
  0
ARC
  5
19C
330
1F
100
AcDbEntity
  8
0
  6
Continuous
 62
     7
370
    15
100
AcDbCircle
 10
8.1660106587
 20
3.7427641857
 30
0.0
 40
0.0150000000000006
100
AcDbArc
 50
270.0
 51
0.0
  0
LINE
  5
19D
330
1F
100
AcDbEntity
  8
0
  6
Continuous
 62
     7
370
    15
100
AcDbLine
 10
8.1810106587
 20
3.7427641857
 30
0.0
 11
8.1810106587
 21
5.3437641857
 31
0.0
  0
ARC
  5
19E
330
1F
100
AcDbEntity
  8
0
  6
Continuous
 62
     7
370
    15
100
AcDbCircle
 10
8.1960106587
 20
5.3437641857
 30
0.0
 40
0.0150000000000006
100
AcDbArc
 50
90.0
 51
180.0
  0
LINE
  5
19F
330
1F
100
AcDbEntity
  8
0
  6
Continuous
 62
     7
370
    15
100
AcDbLine
 10
8.1960106587
 20
5.3587641857
 30
0.0
 11
8.5410106587
 21
5.3587641857
 31
0.0
  0
ARC
  5
1A0
330
1F
100
AcDbEntity
  8
0
  6
Continuous
 62
     7
370
    15
100
AcDbCircle
 10
8.5410106587
 20
5.3437641857
 30
0.0
 40
0.0150000000000006
100
AcDbArc
 50
0.0
 51
90.0
  0
LINE
  5
1A1
330
1F
100
AcDbEntity
  8
0
  6
Continuous
 62
     7
370
    15
100
AcDbLine
 10
8.5560106587
 20
5.3437641857
 30
0.0
 11
8.5560106587
 21
4.6867641857
 31
0.0
  0
ARC
  5
1A2
330
1F
100
AcDbEntity
  8
0
  6
Continuous
 62
     7
370
    15
100
AcDbCircle
 10
8.5710106587
 20
4.6867641857
 30
0.0
 40
0.0150000000000006
100
AcDbArc
 50
180.0
 51
270.0
  0
LINE
  5
1A3
330
1F
100
AcDbEntity
  8
0
  6
Continuous
 62
     7
370
    15
100
AcDbLine
 10
8.5710106587
 20
4.6717641857
 30
0.0
 11
8.7280106587
 21
4.6717641857
 31
0.0
  0
ARC
  5
1A4
330
1F
100
AcDbEntity
  8
0
  6
Continuous
 62
     7
370
    15
100
AcDbCircle
 10
8.7280106587
 20
4.6867641857
 30
0.0
 40
0.0149999999999997
100
AcDbArc
 50
270.0
 51
360.0
  0
LINE
  5
1A5
330
1F
100
AcDbEntity
  8
0
  6
Continuous
 62
     7
370
    15
100
AcDbLine
 10
8.7430106587
 20
4.6867641857
 30
0.0
 11
8.7430106587
 21
4.7867641857
 31
0.0
  0
ARC
  5
1A6
330
1F
100
AcDbEntity
  8
0
  6
Continuous
 62
     7
370
    15
100
AcDbCircle
 10
8.7280106587
 20
4.7867641857
 30
0.0
 40
0.0150000000000006
100
AcDbArc
 50
360.0
 51
90.0
  0
LINE
  5
1A7
330
1F
100
AcDbEntity
  8
0
  6
Continuous
 62
     7
370
    15
100
AcDbLine
 10
8.7280106587
 20
4.8017641857
 30
0.0
 11
8.6960106587
 21
4.8017641857
 31
0.0
  0
ARC
  5
1A8
330
1F
100
AcDbEntity
  8
0
  6
Continuous
 62
     7
370
    15
100
AcDbCircle
 10
8.6960106587
 20
4.7867641857
 30
0.0
 40
0.0150000000000023
100
AcDbArc
 50
90.0
 51
180.0
  0
LINE
  5
1A9
330
1F
100
AcDbEntity
  8
0
  6
Continuous
 62
     7
370
    15
100
AcDbLine
 10
8.6810106587
 20
4.7867641857
 30
0.0
 11
8.6810106587
 21
4.7487641857
 31
0.0
  0
ARC
  5
1AA
330
1F
100
AcDbEntity
  8
0
  6
Continuous
 62
     7
370
    15
100
AcDbCircle
 10
8.6660106587
 20
4.7487641857
 30
0.0
 40
0.0150000000000006
100
AcDbArc
 50
270.0
 51
0.0
  0
LINE
  5
1AB
330
1F
100
AcDbEntity
  8
0
  6
Continuous
 62
     7
370
    15
100
AcDbLine
 10
8.6660106587
 20
4.7337641857
 30
0.0
 11
8.6330106587
 21
4.7337641857
 31
0.0
  0
ARC
  5
1AC
330
1F
100
AcDbEntity
  8
0
  6
Continuous
 62
     7
370
    15
100
AcDbCircle
 10
8.6330106587
 20
4.7487641857
 30
0.0
 40
0.0149999999999997
100
AcDbArc
 50
180.0
 51
270.0
  0
LINE
  5
1AD
330
1F
100
AcDbEntity
  8
0
  6
Continuous
 62
     7
370
    15
100
AcDbLine
 10
8.6180106587
 20
4.7487641857
 30
0.0
 11
8.6180106587
 21
5.3437641857
 31
0.0
  0
ARC
  5
1AE
330
1F
100
AcDbEntity
  8
0
  6
Continuous
 62
     7
370
    15
100
AcDbCircle
 10
8.6330106587
 20
5.3437641857
 30
0.0
 40
0.0150000000000006
100
AcDbArc
 50
90.0
 51
180.0
  0
LINE
  5
1AF
330
1F
100
AcDbEntity
  8
0
  6
Continuous
 62
     7
370
    15
100
AcDbLine
 10
8.6330106587
 20
5.3587641857
 30
0.0
 11
8.6660106587
 21
5.3587641857
 31
0.0
  0
ARC
  5
1B0
330
1F
100
AcDbEntity
  8
0
  6
Continuous
 62
     7
370
    15
100
AcDbCircle
 10
8.6660106587
 20
5.3437641857
 30
0.0
 40
0.0149999999999997
100
AcDbArc
 50
0.0
 51
90.0
  0
LINE
  5
1B1
330
1F
100
AcDbEntity
  8
0
  6
Continuous
 62
     7
370
    15
100
AcDbLine
 10
8.6810106587
 20
5.3437641857
 30
0.0
 11
8.6810106587
 21
5.3057641857
 31
0.0
  0
ARC
  5
1B2
330
1F
100
AcDbEntity
  8
0
  6
Continuous
 62
     7
370
    15
100
AcDbCircle
 10
8.6960106587
 20
5.3057641857
 30
0.0
 40
0.0150000000000006
100
AcDbArc
 50
180.0
 51
270.0
  0
LINE
  5
1B3
330
1F
100
AcDbEntity
  8
0
  6
Continuous
 62
     7
370
    15
100
AcDbLine
 10
8.6960106587
 20
5.2907641857
 30
0.0
 11
8.7280106587
 21
5.2907641857
 31
0.0
  0
ARC
  5
1B4
330
1F
100
AcDbEntity
  8
0
  6
Continuous
 62
     7
370
    15
100
AcDbCircle
 10
8.7280106587
 20
5.3057641857
 30
0.0
 40
0.0150000000000006
100
AcDbArc
 50
270.0
 51
360.0
  0
LINE
  5
1B5
330
1F
100
AcDbEntity
  8
0
  6
Continuous
 62
     7
370
    15
100
AcDbLine
 10
8.7430106587
 20
5.3057641857
 30
0.0
 11
8.7430106587
 21
5.4057641857
 31
0.0
  0
ARC
  5
1B6
330
1F
100
AcDbEntity
  8
0
  6
Continuous
 62
     7
370
    15
100
AcDbCircle
 10
8.7280106587
 20
5.4057641857
 30
0.0
 40
0.0150000000000006
100
AcDbArc
 50
360.0
 51
90.0
  0
LINE
  5
1B7
330
1F
100
AcDbEntity
  8
0
  6
Continuous
 62
     7
370
    15
100
AcDbLine
 10
8.7280106587
 20
5.4207641857
 30
0.0
 11
8.1960106587
 21
5.4207641857
 31
0.0
  0
ARC
  5
1B8
330
1F
100
AcDbEntity
  8
0
  6
Continuous
 62
     7
370
    15
100
AcDbCircle
 10
8.1960106587
 20
5.4357641857
 30
0.0
 40
0.0150000000000015
100
AcDbArc
 50
180.0
 51
270.0
  0
LINE
  5
1B9
330
1F
100
AcDbEntity
  8
0
  6
Continuous
 62
     7
370
    15
100
AcDbLine
 10
8.1810106587
 20
5.4357641857
 30
0.0
 11
8.1810106587
 21
5.5907641857
 31
0.0
  0
ARC
  5
1BA
330
1F
100
AcDbEntity
  8
0
  6
Continuous
 62
     7
370
    15
100
AcDbCircle
 10
8.1960106587
 20
5.5907641857
 30
0.0
 40
0.0150000000000006
100
AcDbArc
 50
90.0
 51
180.0
  0
LINE
  5
1BB
330
1F
100
AcDbEntity
  8
0
  6
Continuous
 62
     7
370
    15
100
AcDbLine
 10
8.1960106587
 20
5.6057641857
 30
0.0
 11
8.3560106587
 21
5.6057641857
 31
0.0
  0
ARC
  5
1BC
330
1F
100
AcDbEntity
  8
0
  6
Continuous
 62
     7
370
    15
100
AcDbCircle
 10
8.3560106587
 20
5.5907641857
 30
0.0
 40
0.0150000000000023
100
AcDbArc
 50
0.0
 51
90.0
  0
LINE
  5
1BD
330
1F
100
AcDbEntity
  8
0
  6
Continuous
 62
     7
370
    15
100
AcDbLine
 10
8.3710106587
 20
5.5907641857
 30
0.0
 11
8.3710106587
 21
5.5577641857
 31
0.0
  0
ARC
  5
1BE
330
1F
100
AcDbEntity
  8
0
  6
Continuous
 62
     7
370
    15
100
AcDbCircle
 10
8.3860106587
 20
5.5577641857
 30
0.0
 40
0.0149999999999997
100
AcDbArc
 50
180.0
 51
270.0
  0
LINE
  5
1BF
330
1F
100
AcDbEntity
  8
0
  6
Continuous
 62
     7
370
    15
100
AcDbLine
 10
8.3860106587
 20
5.5427641857
 30
0.0
 11
8.4780106587
 21
5.5427641857
 31
0.0
  0
LINE
  5
1C0
330
1F
100
AcDbEntity
  8
0
  6
Continuous
 62
     7
370
    15
100
AcDbLine
 10
7.8070106587
 20
6.3697641857
 30
0.0
 11
7.8070106587
 21
6.2074119963
 31
0.0
  0
ARC
  5
1C1
330
1F
100
AcDbEntity
  8
0
  6
Continuous
 62
     7
370
    15
100
AcDbCircle
 10
7.6820106587
 20
6.2074119963
 30
0.0
 40
0.1249999999999994
100
AcDbArc
 50
323.9009837413
 51
0.0
  0
LINE
  5
1C2
330
1F
100
AcDbEntity
  8
0
  6
Continuous
 62
     7
370
    15
100
AcDbLine
 10
7.7830106587
 20
6.1337641857
 30
0.0
 11
7.7830106587
 21
6.1027641857
 31
0.0
  0
LINE
  5
1C3
330
1F
100
AcDbEntity
  8
0
  6
Continuous
 62
     7
370
    15
100
AcDbLine
 10
7.7830106587
 20
6.1027641857
 30
0.0
 11
7.8230106587
 21
6.1027641857
 31
0.0
  0
LINE
  5
1C4
330
1F
100
AcDbEntity
  8
0
  6
Continuous
 62
     7
370
    15
100
AcDbLine
 10
7.8230106587
 20
6.1027641857
 30
0.0
 11
7.8230106587
 21
5.7747641857
 31
0.0
  0
ARC
  5
1C5
330
1F
100
AcDbEntity
  8
0
  6
Continuous
 62
     7
370
    15
100
AcDbCircle
 10
7.8380106587
 20
5.7747641857
 30
0.0
 40
0.0150000000000015
100
AcDbArc
 50
180.0
 51
270.0
  0
LINE
  5
1C6
330
1F
100
AcDbEntity
  8
0
  6
Continuous
 62
     7
370
    15
100
AcDbLine
 10
7.8380106587
 20
5.7597641857
 30
0.0
 11
7.9000106587
 21
5.7597641857
 31
0.0
  0
ARC
  5
1C7
330
1F
100
AcDbEntity
  8
0
  6
Continuous
 62
     7
370
    15
100
AcDbCircle
 10
7.9000106587
 20
5.7747641857
 30
0.0
 40
0.0149999999999997
100
AcDbArc
 50
270.0
 51
0.0
  0
LINE
  5
1C8
330
1F
100
AcDbEntity
  8
0
  6
Continuous
 62
     7
370
    15
100
AcDbLine
 10
7.9150106587
 20
5.7747641857
 30
0.0
 11
7.9150106587
 21
6.1027641857
 31
0.0
  0
LINE
  5
1C9
330
1F
100
AcDbEntity
  8
0
  6
Continuous
 62
     7
370
    15
100
AcDbLine
 10
7.9150106587
 20
6.1027641857
 30
0.0
 11
7.8820106587
 21
6.1357641857
 31
0.0
  0
LINE
  5
1CA
330
1F
100
AcDbEntity
  8
0
  6
Continuous
 62
     7
370
    15
100
AcDbLine
 10
7.8820106587
 20
6.1357641857
 30
0.0
 11
7.8820106587
 21
6.3347641857
 31
0.0
  0
LINE
  5
1CB
330
1F
100
AcDbEntity
  8
0
  6
Continuous
 62
     7
370
    15
100
AcDbLine
 10
7.8820106587
 20
6.3347641857
 30
0.0
 11
7.9320106587
 21
6.3847641857
 31
0.0
  0
LINE
  5
1CC
330
1F
100
AcDbEntity
  8
0
  6
Continuous
 62
     7
370
    15
100
AcDbLine
 10
7.9320106587
 20
6.3847641857
 30
0.0
 11
7.8220106587
 21
6.3847641857
 31
0.0
  0
ARC
  5
1CD
330
1F
100
AcDbEntity
  8
0
  6
Continuous
 62
     7
370
    15
100
AcDbCircle
 10
7.8220106587
 20
6.3697641857
 30
0.0
 40
0.0149999999999997
100
AcDbArc
 50
90.0
 51
180.0
  0
LINE
  5
1CE
330
1F
100
AcDbEntity
  8
0
  6
Continuous
 62
     7
370
    15
100
AcDbLine
 10
7.5570106587
 20
6.3697641857
 30
0.0
 11
7.5570106587
 21
6.2074119963
 31
0.0
  0
ARC
  5
1CF
330
1F
100
AcDbEntity
  8
0
  6
Continuous
 62
     7
370
    15
100
AcDbCircle
 10
7.4320106587
 20
6.2074119963
 30
0.0
 40
0.1249999999999987
100
AcDbArc
 50
323.9009837413
 51
0.0
  0
LINE
  5
1D0
330
1F
100
AcDbEntity
  8
0
  6
Continuous
 62
     7
370
    15
100
AcDbLine
 10
7.5330106587
 20
6.1337641857
 30
0.0
 11
7.5330106587
 21
6.1027641857
 31
0.0
  0
LINE
  5
1D1
330
1F
100
AcDbEntity
  8
0
  6
Continuous
 62
     7
370
    15
100
AcDbLine
 10
7.5330106587
 20
6.1027641857
 30
0.0
 11
7.5730106587
 21
6.1027641857
 31
0.0
  0
LINE
  5
1D2
330
1F
100
AcDbEntity
  8
0
  6
Continuous
 62
     7
370
    15
100
AcDbLine
 10
7.5730106587
 20
6.1027641857
 30
0.0
 11
7.5730106587
 21
5.7747641857
 31
0.0
  0
ARC
  5
1D3
330
1F
100
AcDbEntity
  8
0
  6
Continuous
 62
     7
370
    15
100
AcDbCircle
 10
7.5880106587
 20
5.7747641857
 30
0.0
 40
0.0150000000000015
100
AcDbArc
 50
180.0
 51
270.0
  0
LINE
  5
1D4
330
1F
100
AcDbEntity
  8
0
  6
Continuous
 62
     7
370
    15
100
AcDbLine
 10
7.5880106587
 20
5.7597641857
 30
0.0
 11
7.6500106587
 21
5.7597641857
 31
0.0
  0
ARC
  5
1D5
330
1F
100
AcDbEntity
  8
0
  6
Continuous
 62
     7
370
    15
100
AcDbCircle
 10
7.6500106587
 20
5.7747641857
 30
0.0
 40
0.0149999999999997
100
AcDbArc
 50
270.0
 51
0.0
  0
LINE
  5
1D6
330
1F
100
AcDbEntity
  8
0
  6
Continuous
 62
     7
370
    15
100
AcDbLine
 10
7.6650106587
 20
5.7747641857
 30
0.0
 11
7.6650106587
 21
6.1027641857
 31
0.0
  0
LINE
  5
1D7
330
1F
100
AcDbEntity
  8
0
  6
Continuous
 62
     7
370
    15
100
AcDbLine
 10
7.6650106587
 20
6.1027641857
 30
0.0
 11
7.6320106587
 21
6.1357641857
 31
0.0
  0
LINE
  5
1D8
330
1F
100
AcDbEntity
  8
0
  6
Continuous
 62
     7
370
    15
100
AcDbLine
 10
7.6320106587
 20
6.1357641857
 30
0.0
 11
7.6320106587
 21
6.3347641857
 31
0.0
  0
LINE
  5
1D9
330
1F
100
AcDbEntity
  8
0
  6
Continuous
 62
     7
370
    15
100
AcDbLine
 10
7.6320106587
 20
6.3347641857
 30
0.0
 11
7.6820106587
 21
6.3847641857
 31
0.0
  0
LINE
  5
1DA
330
1F
100
AcDbEntity
  8
0
  6
Continuous
 62
     7
370
    15
100
AcDbLine
 10
7.6820106587
 20
6.3847641857
 30
0.0
 11
7.5720106587
 21
6.3847641857
 31
0.0
  0
ARC
  5
1DB
330
1F
100
AcDbEntity
  8
0
  6
Continuous
 62
     7
370
    15
100
AcDbCircle
 10
7.5720106587
 20
6.3697641857
 30
0.0
 40
0.0150000000000006
100
AcDbArc
 50
90.0
 51
180.0
  0
LINE
  5
1DC
330
1F
100
AcDbEntity
  8
0
  6
Continuous
 62
     7
370
    15
100
AcDbLine
 10
7.3070106587
 20
6.3697641857
 30
0.0
 11
7.3070106587
 21
6.2074119963
 31
0.0
  0
ARC
  5
1DD
330
1F
100
AcDbEntity
  8
0
  6
Continuous
 62
     7
370
    15
100
AcDbCircle
 10
7.1820106587
 20
6.2074119963
 30
0.0
 40
0.124999999999998
100
AcDbArc
 50
323.9009837413
 51
0.0
  0
LINE
  5
1DE
330
1F
100
AcDbEntity
  8
0
  6
Continuous
 62
     7
370
    15
100
AcDbLine
 10
7.2830106587
 20
6.1337641857
 30
0.0
 11
7.2830106587
 21
6.1027641857
 31
0.0
  0
LINE
  5
1DF
330
1F
100
AcDbEntity
  8
0
  6
Continuous
 62
     7
370
    15
100
AcDbLine
 10
7.2830106587
 20
6.1027641857
 30
0.0
 11
7.3230106587
 21
6.1027641857
 31
0.0
  0
LINE
  5
1E0
330
1F
100
AcDbEntity
  8
0
  6
Continuous
 62
     7
370
    15
100
AcDbLine
 10
7.3230106587
 20
6.1027641857
 30
0.0
 11
7.3230106587
 21
5.7747641857
 31
0.0
  0
ARC
  5
1E1
330
1F
100
AcDbEntity
  8
0
  6
Continuous
 62
     7
370
    15
100
AcDbCircle
 10
7.3380106587
 20
5.7747641857
 30
0.0
 40
0.0150000000000015
100
AcDbArc
 50
180.0
 51
270.0
  0
LINE
  5
1E2
330
1F
100
AcDbEntity
  8
0
  6
Continuous
 62
     7
370
    15
100
AcDbLine
 10
7.3380106587
 20
5.7597641857
 30
0.0
 11
7.4000106587
 21
5.7597641857
 31
0.0
  0
ARC
  5
1E3
330
1F
100
AcDbEntity
  8
0
  6
Continuous
 62
     7
370
    15
100
AcDbCircle
 10
7.4000106587
 20
5.7747641857
 30
0.0
 40
0.0150000000000006
100
AcDbArc
 50
270.0
 51
0.0
  0
LINE
  5
1E4
330
1F
100
AcDbEntity
  8
0
  6
Continuous
 62
     7
370
    15
100
AcDbLine
 10
7.4150106587
 20
5.7747641857
 30
0.0
 11
7.4150106587
 21
6.1027641857
 31
0.0
  0
LINE
  5
1E5
330
1F
100
AcDbEntity
  8
0
  6
Continuous
 62
     7
370
    15
100
AcDbLine
 10
7.4150106587
 20
6.1027641857
 30
0.0
 11
7.3820106587
 21
6.1357641857
 31
0.0
  0
LINE
  5
1E6
330
1F
100
AcDbEntity
  8
0
  6
Continuous
 62
     7
370
    15
100
AcDbLine
 10
7.3820106587
 20
6.1357641857
 30
0.0
 11
7.3820106587
 21
6.3347641857
 31
0.0
  0
LINE
  5
1E7
330
1F
100
AcDbEntity
  8
0
  6
Continuous
 62
     7
370
    15
100
AcDbLine
 10
7.3820106587
 20
6.3347641857
 30
0.0
 11
7.4320106587
 21
6.3847641857
 31
0.0
  0
LINE
  5
1E8
330
1F
100
AcDbEntity
  8
0
  6
Continuous
 62
     7
370
    15
100
AcDbLine
 10
7.4320106587
 20
6.3847641857
 30
0.0
 11
7.3220106587
 21
6.3847641857
 31
0.0
  0
ARC
  5
1E9
330
1F
100
AcDbEntity
  8
0
  6
Continuous
 62
     7
370
    15
100
AcDbCircle
 10
7.3220106587
 20
6.3697641857
 30
0.0
 40
0.0149999999999997
100
AcDbArc
 50
90.0
 51
180.0
  0
LINE
  5
1EA
330
1F
100
AcDbEntity
  8
0
  6
Continuous
 62
     7
370
    15
100
AcDbLine
 10
7.0570106587
 20
6.3697641857
 30
0.0
 11
7.0570106587
 21
6.2074119963
 31
0.0
  0
ARC
  5
1EB
330
1F
100
AcDbEntity
  8
0
  6
Continuous
 62
     7
370
    15
100
AcDbCircle
 10
6.9320106587
 20
6.2074119963
 30
0.0
 40
0.124999999999998
100
AcDbArc
 50
323.9009837413
 51
0.0
  0
LINE
  5
1EC
330
1F
100
AcDbEntity
  8
0
  6
Continuous
 62
     7
370
    15
100
AcDbLine
 10
7.0330106587
 20
6.1337641857
 30
0.0
 11
7.0330106587
 21
6.1027641857
 31
0.0
  0
LINE
  5
1ED
330
1F
100
AcDbEntity
  8
0
  6
Continuous
 62
     7
370
    15
100
AcDbLine
 10
7.0330106587
 20
6.1027641857
 30
0.0
 11
7.0730106587
 21
6.1027641857
 31
0.0
  0
LINE
  5
1EE
330
1F
100
AcDbEntity
  8
0
  6
Continuous
 62
     7
370
    15
100
AcDbLine
 10
7.0730106587
 20
6.1027641857
 30
0.0
 11
7.0730106587
 21
5.7747641857
 31
0.0
  0
ARC
  5
1EF
330
1F
100
AcDbEntity
  8
0
  6
Continuous
 62
     7
370
    15
100
AcDbCircle
 10
7.0880106587
 20
5.7747641857
 30
0.0
 40
0.0150000000000006
100
AcDbArc
 50
180.0
 51
270.0
  0
LINE
  5
1F0
330
1F
100
AcDbEntity
  8
0
  6
Continuous
 62
     7
370
    15
100
AcDbLine
 10
7.0880106587
 20
5.7597641857
 30
0.0
 11
7.1500106587
 21
5.7597641857
 31
0.0
  0
ARC
  5
1F1
330
1F
100
AcDbEntity
  8
0
  6
Continuous
 62
     7
370
    15
100
AcDbCircle
 10
7.1500106587
 20
5.7747641857
 30
0.0
 40
0.0149999999999997
100
AcDbArc
 50
270.0
 51
0.0
  0
LINE
  5
1F2
330
1F
100
AcDbEntity
  8
0
  6
Continuous
 62
     7
370
    15
100
AcDbLine
 10
7.1650106587
 20
5.7747641857
 30
0.0
 11
7.1650106587
 21
6.1027641857
 31
0.0
  0
LINE
  5
1F3
330
1F
100
AcDbEntity
  8
0
  6
Continuous
 62
     7
370
    15
100
AcDbLine
 10
7.1650106587
 20
6.1027641857
 30
0.0
 11
7.1320106587
 21
6.1357641857
 31
0.0
  0
LINE
  5
1F4
330
1F
100
AcDbEntity
  8
0
  6
Continuous
 62
     7
370
    15
100
AcDbLine
 10
7.1320106587
 20
6.1357641857
 30
0.0
 11
7.1320106587
 21
6.3347641857
 31
0.0
  0
LINE
  5
1F5
330
1F
100
AcDbEntity
  8
0
  6
Continuous
 62
     7
370
    15
100
AcDbLine
 10
7.1320106587
 20
6.3347641857
 30
0.0
 11
7.1820106587
 21
6.3847641857
 31
0.0
  0
LINE
  5
1F6
330
1F
100
AcDbEntity
  8
0
  6
Continuous
 62
     7
370
    15
100
AcDbLine
 10
7.1820106587
 20
6.3847641857
 30
0.0
 11
7.0720106587
 21
6.3847641857
 31
0.0
  0
ARC
  5
1F7
330
1F
100
AcDbEntity
  8
0
  6
Continuous
 62
     7
370
    15
100
AcDbCircle
 10
7.0720106587
 20
6.3697641857
 30
0.0
 40
0.0150000000000006
100
AcDbArc
 50
90.0
 51
180.0
  0
LINE
  5
1F8
330
1F
100
AcDbEntity
  8
0
  6
Continuous
 62
     7
370
    15
100
AcDbLine
 10
6.8070106587
 20
6.3697641857
 30
0.0
 11
6.8070106587
 21
6.2074119963
 31
0.0
  0
ARC
  5
1F9
330
1F
100
AcDbEntity
  8
0
  6
Continuous
 62
     7
370
    15
100
AcDbCircle
 10
6.6820106587
 20
6.2074119963
 30
0.0
 40
0.1249999999999974
100
AcDbArc
 50
323.9009837413
 51
0.0
  0
LINE
  5
1FA
330
1F
100
AcDbEntity
  8
0
  6
Continuous
 62
     7
370
    15
100
AcDbLine
 10
6.7830106587
 20
6.1337641857
 30
0.0
 11
6.7830106587
 21
6.1027641857
 31
0.0
  0
LINE
  5
1FB
330
1F
100
AcDbEntity
  8
0
  6
Continuous
 62
     7
370
    15
100
AcDbLine
 10
6.7830106587
 20
6.1027641857
 30
0.0
 11
6.8230106587
 21
6.1027641857
 31
0.0
  0
LINE
  5
1FC
330
1F
100
AcDbEntity
  8
0
  6
Continuous
 62
     7
370
    15
100
AcDbLine
 10
6.8230106587
 20
6.1027641857
 30
0.0
 11
6.8230106587
 21
5.7747641857
 31
0.0
  0
ARC
  5
1FD
330
1F
100
AcDbEntity
  8
0
  6
Continuous
 62
     7
370
    15
100
AcDbCircle
 10
6.8380106587
 20
5.7747641857
 30
0.0
 40
0.0150000000000015
100
AcDbArc
 50
180.0
 51
270.0
  0
LINE
  5
1FE
330
1F
100
AcDbEntity
  8
0
  6
Continuous
 62
     7
370
    15
100
AcDbLine
 10
6.8380106587
 20
5.7597641857
 30
0.0
 11
6.9000106587
 21
5.7597641857
 31
0.0
  0
ARC
  5
1FF
330
1F
100
AcDbEntity
  8
0
  6
Continuous
 62
     7
370
    15
100
AcDbCircle
 10
6.9000106587
 20
5.7747641857
 30
0.0
 40
0.0150000000000006
100
AcDbArc
 50
270.0
 51
0.0
  0
LINE
  5
200
330
1F
100
AcDbEntity
  8
0
  6
Continuous
 62
     7
370
    15
100
AcDbLine
 10
6.9150106587
 20
5.7747641857
 30
0.0
 11
6.9150106587
 21
6.1027641857
 31
0.0
  0
LINE
  5
201
330
1F
100
AcDbEntity
  8
0
  6
Continuous
 62
     7
370
    15
100
AcDbLine
 10
6.9150106587
 20
6.1027641857
 30
0.0
 11
6.8820106587
 21
6.1357641857
 31
0.0
  0
LINE
  5
202
330
1F
100
AcDbEntity
  8
0
  6
Continuous
 62
     7
370
    15
100
AcDbLine
 10
6.8820106587
 20
6.1357641857
 30
0.0
 11
6.8820106587
 21
6.3347641857
 31
0.0
  0
LINE
  5
203
330
1F
100
AcDbEntity
  8
0
  6
Continuous
 62
     7
370
    15
100
AcDbLine
 10
6.8820106587
 20
6.3347641857
 30
0.0
 11
6.9320106587
 21
6.3847641857
 31
0.0
  0
LINE
  5
204
330
1F
100
AcDbEntity
  8
0
  6
Continuous
 62
     7
370
    15
100
AcDbLine
 10
6.9320106587
 20
6.3847641857
 30
0.0
 11
6.8220106587
 21
6.3847641857
 31
0.0
  0
ARC
  5
205
330
1F
100
AcDbEntity
  8
0
  6
Continuous
 62
     7
370
    15
100
AcDbCircle
 10
6.8220106587
 20
6.3697641857
 30
0.0
 40
0.0149999999999997
100
AcDbArc
 50
90.0
 51
180.0
  0
LINE
  5
206
330
1F
100
AcDbEntity
  8
0
  6
Continuous
 62
     7
370
    15
100
AcDbLine
 10
6.5570106587
 20
6.3697641857
 30
0.0
 11
6.5570106587
 21
6.2074119963
 31
0.0
  0
ARC
  5
207
330
1F
100
AcDbEntity
  8
0
  6
Continuous
 62
     7
370
    15
100
AcDbCircle
 10
6.4320106587
 20
6.2074119963
 30
0.0
 40
0.1249999999999982
100
AcDbArc
 50
323.9009837413
 51
0.0
  0
LINE
  5
208
330
1F
100
AcDbEntity
  8
0
  6
Continuous
 62
     7
370
    15
100
AcDbLine
 10
6.5330106587
 20
6.1337641857
 30
0.0
 11
6.5330106587
 21
6.1027641857
 31
0.0
  0
LINE
  5
209
330
1F
100
AcDbEntity
  8
0
  6
Continuous
 62
     7
370
    15
100
AcDbLine
 10
6.5330106587
 20
6.1027641857
 30
0.0
 11
6.5730106587
 21
6.1027641857
 31
0.0
  0
LINE
  5
20A
330
1F
100
AcDbEntity
  8
0
  6
Continuous
 62
     7
370
    15
100
AcDbLine
 10
6.5730106587
 20
6.1027641857
 30
0.0
 11
6.5730106587
 21
5.7747641857
 31
0.0
  0
ARC
  5
20B
330
1F
100
AcDbEntity
  8
0
  6
Continuous
 62
     7
370
    15
100
AcDbCircle
 10
6.5880106587
 20
5.7747641857
 30
0.0
 40
0.0150000000000015
100
AcDbArc
 50
180.0
 51
270.0
  0
LINE
  5
20C
330
1F
100
AcDbEntity
  8
0
  6
Continuous
 62
     7
370
    15
100
AcDbLine
 10
6.5880106587
 20
5.7597641857
 30
0.0
 11
6.6500106587
 21
5.7597641857
 31
0.0
  0
ARC
  5
20D
330
1F
100
AcDbEntity
  8
0
  6
Continuous
 62
     7
370
    15
100
AcDbCircle
 10
6.6500106587
 20
5.7747641857
 30
0.0
 40
0.0149999999999997
100
AcDbArc
 50
270.0
 51
0.0
  0
LINE
  5
20E
330
1F
100
AcDbEntity
  8
0
  6
Continuous
 62
     7
370
    15
100
AcDbLine
 10
6.6650106587
 20
5.7747641857
 30
0.0
 11
6.6650106587
 21
6.1027641857
 31
0.0
  0
LINE
  5
20F
330
1F
100
AcDbEntity
  8
0
  6
Continuous
 62
     7
370
    15
100
AcDbLine
 10
6.6650106587
 20
6.1027641857
 30
0.0
 11
6.6320106587
 21
6.1357641857
 31
0.0
  0
LINE
  5
210
330
1F
100
AcDbEntity
  8
0
  6
Continuous
 62
     7
370
    15
100
AcDbLine
 10
6.6320106587
 20
6.1357641857
 30
0.0
 11
6.6320106587
 21
6.3347641857
 31
0.0
  0
LINE
  5
211
330
1F
100
AcDbEntity
  8
0
  6
Continuous
 62
     7
370
    15
100
AcDbLine
 10
6.6320106587
 20
6.3347641857
 30
0.0
 11
6.6820106587
 21
6.3847641857
 31
0.0
  0
LINE
  5
212
330
1F
100
AcDbEntity
  8
0
  6
Continuous
 62
     7
370
    15
100
AcDbLine
 10
6.6820106587
 20
6.3847641857
 30
0.0
 11
6.5720106587
 21
6.3847641857
 31
0.0
  0
ARC
  5
213
330
1F
100
AcDbEntity
  8
0
  6
Continuous
 62
     7
370
    15
100
AcDbCircle
 10
6.5720106587
 20
6.3697641857
 30
0.0
 40
0.0150000000000006
100
AcDbArc
 50
90.0
 51
180.0
  0
LINE
  5
214
330
1F
100
AcDbEntity
  8
0
  6
Continuous
 62
     7
370
    15
100
AcDbLine
 10
6.3070106587
 20
6.3697641857
 30
0.0
 11
6.3070106587
 21
6.2074119963
 31
0.0
  0
ARC
  5
215
330
1F
100
AcDbEntity
  8
0
  6
Continuous
 62
     7
370
    15
100
AcDbCircle
 10
6.1820106587
 20
6.2074119963
 30
0.0
 40
0.124999999999998
100
AcDbArc
 50
323.9009837413
 51
0.0
  0
LINE
  5
216
330
1F
100
AcDbEntity
  8
0
  6
Continuous
 62
     7
370
    15
100
AcDbLine
 10
6.2830106587
 20
6.1337641857
 30
0.0
 11
6.2830106587
 21
6.1027641857
 31
0.0
  0
LINE
  5
217
330
1F
100
AcDbEntity
  8
0
  6
Continuous
 62
     7
370
    15
100
AcDbLine
 10
6.2830106587
 20
6.1027641857
 30
0.0
 11
6.3230106587
 21
6.1027641857
 31
0.0
  0
LINE
  5
218
330
1F
100
AcDbEntity
  8
0
  6
Continuous
 62
     7
370
    15
100
AcDbLine
 10
6.3230106587
 20
6.1027641857
 30
0.0
 11
6.3230106587
 21
5.7747641857
 31
0.0
  0
ARC
  5
219
330
1F
100
AcDbEntity
  8
0
  6
Continuous
 62
     7
370
    15
100
AcDbCircle
 10
6.3380106587
 20
5.7747641857
 30
0.0
 40
0.0150000000000015
100
AcDbArc
 50
180.0
 51
270.0
  0
LINE
  5
21A
330
1F
100
AcDbEntity
  8
0
  6
Continuous
 62
     7
370
    15
100
AcDbLine
 10
6.3380106587
 20
5.7597641857
 30
0.0
 11
6.4000106587
 21
5.7597641857
 31
0.0
  0
ARC
  5
21B
330
1F
100
AcDbEntity
  8
0
  6
Continuous
 62
     7
370
    15
100
AcDbCircle
 10
6.4000106587
 20
5.7747641857
 30
0.0
 40
0.0149999999999997
100
AcDbArc
 50
270.0
 51
0.0
  0
LINE
  5
21C
330
1F
100
AcDbEntity
  8
0
  6
Continuous
 62
     7
370
    15
100
AcDbLine
 10
6.4150106587
 20
5.7747641857
 30
0.0
 11
6.4150106587
 21
6.1027641857
 31
0.0
  0
LINE
  5
21D
330
1F
100
AcDbEntity
  8
0
  6
Continuous
 62
     7
370
    15
100
AcDbLine
 10
6.4150106587
 20
6.1027641857
 30
0.0
 11
6.3820106587
 21
6.1357641857
 31
0.0
  0
LINE
  5
21E
330
1F
100
AcDbEntity
  8
0
  6
Continuous
 62
     7
370
    15
100
AcDbLine
 10
6.3820106587
 20
6.1357641857
 30
0.0
 11
6.3820106587
 21
6.3347641857
 31
0.0
  0
LINE
  5
21F
330
1F
100
AcDbEntity
  8
0
  6
Continuous
 62
     7
370
    15
100
AcDbLine
 10
6.3820106587
 20
6.3347641857
 30
0.0
 11
6.4320106587
 21
6.3847641857
 31
0.0
  0
LINE
  5
220
330
1F
100
AcDbEntity
  8
0
  6
Continuous
 62
     7
370
    15
100
AcDbLine
 10
6.4320106587
 20
6.3847641857
 30
0.0
 11
6.3220106587
 21
6.3847641857
 31
0.0
  0
ARC
  5
221
330
1F
100
AcDbEntity
  8
0
  6
Continuous
 62
     7
370
    15
100
AcDbCircle
 10
6.3220106587
 20
6.3697641857
 30
0.0
 40
0.0149999999999997
100
AcDbArc
 50
90.0
 51
180.0
  0
LINE
  5
222
330
1F
100
AcDbEntity
  8
0
  6
Continuous
 62
     7
370
    15
100
AcDbLine
 10
6.0570106587
 20
6.3697641857
 30
0.0
 11
6.0570106587
 21
6.2074119963
 31
0.0
  0
ARC
  5
223
330
1F
100
AcDbEntity
  8
0
  6
Continuous
 62
     7
370
    15
100
AcDbCircle
 10
5.9320106587
 20
6.2074119963
 30
0.0
 40
0.1249999999999987
100
AcDbArc
 50
323.9009837413
 51
0.0
  0
LINE
  5
224
330
1F
100
AcDbEntity
  8
0
  6
Continuous
 62
     7
370
    15
100
AcDbLine
 10
6.0330106587
 20
6.1337641857
 30
0.0
 11
6.0330106587
 21
6.1027641857
 31
0.0
  0
LINE
  5
225
330
1F
100
AcDbEntity
  8
0
  6
Continuous
 62
     7
370
    15
100
AcDbLine
 10
6.0330106587
 20
6.1027641857
 30
0.0
 11
6.0730106587
 21
6.1027641857
 31
0.0
  0
LINE
  5
226
330
1F
100
AcDbEntity
  8
0
  6
Continuous
 62
     7
370
    15
100
AcDbLine
 10
6.0730106587
 20
6.1027641857
 30
0.0
 11
6.0730106587
 21
5.7747641857
 31
0.0
  0
ARC
  5
227
330
1F
100
AcDbEntity
  8
0
  6
Continuous
 62
     7
370
    15
100
AcDbCircle
 10
6.0880106587
 20
5.7747641857
 30
0.0
 40
0.0150000000000006
100
AcDbArc
 50
180.0
 51
270.0
  0
LINE
  5
228
330
1F
100
AcDbEntity
  8
0
  6
Continuous
 62
     7
370
    15
100
AcDbLine
 10
6.0880106587
 20
5.7597641857
 30
0.0
 11
6.1500106587
 21
5.7597641857
 31
0.0
  0
ARC
  5
229
330
1F
100
AcDbEntity
  8
0
  6
Continuous
 62
     7
370
    15
100
AcDbCircle
 10
6.1500106587
 20
5.7747641857
 30
0.0
 40
0.0149999999999997
100
AcDbArc
 50
270.0
 51
0.0
  0
LINE
  5
22A
330
1F
100
AcDbEntity
  8
0
  6
Continuous
 62
     7
370
    15
100
AcDbLine
 10
6.1650106587
 20
5.7747641857
 30
0.0
 11
6.1650106587
 21
6.1027641857
 31
0.0
  0
LINE
  5
22B
330
1F
100
AcDbEntity
  8
0
  6
Continuous
 62
     7
370
    15
100
AcDbLine
 10
6.1650106587
 20
6.1027641857
 30
0.0
 11
6.1320106587
 21
6.1357641857
 31
0.0
  0
LINE
  5
22C
330
1F
100
AcDbEntity
  8
0
  6
Continuous
 62
     7
370
    15
100
AcDbLine
 10
6.1320106587
 20
6.1357641857
 30
0.0
 11
6.1320106587
 21
6.3347641857
 31
0.0
  0
LINE
  5
22D
330
1F
100
AcDbEntity
  8
0
  6
Continuous
 62
     7
370
    15
100
AcDbLine
 10
6.1320106587
 20
6.3347641857
 30
0.0
 11
6.1820106587
 21
6.3847641857
 31
0.0
  0
LINE
  5
22E
330
1F
100
AcDbEntity
  8
0
  6
Continuous
 62
     7
370
    15
100
AcDbLine
 10
6.1820106587
 20
6.3847641857
 30
0.0
 11
6.0720106587
 21
6.3847641857
 31
0.0
  0
ARC
  5
22F
330
1F
100
AcDbEntity
  8
0
  6
Continuous
 62
     7
370
    15
100
AcDbCircle
 10
6.0720106587
 20
6.3697641857
 30
0.0
 40
0.0149999999999997
100
AcDbArc
 50
90.0
 51
180.0
  0
LINE
  5
230
330
1F
100
AcDbEntity
  8
0
  6
Continuous
 62
     7
370
    15
100
AcDbLine
 10
5.8070106587
 20
6.3697641857
 30
0.0
 11
5.8070106587
 21
6.2074119963
 31
0.0
  0
ARC
  5
231
330
1F
100
AcDbEntity
  8
0
  6
Continuous
 62
     7
370
    15
100
AcDbCircle
 10
5.6820106587
 20
6.2074119963
 30
0.0
 40
0.124999999999998
100
AcDbArc
 50
323.9009837413
 51
0.0
  0
LINE
  5
232
330
1F
100
AcDbEntity
  8
0
  6
Continuous
 62
     7
370
    15
100
AcDbLine
 10
5.7830106587
 20
6.1337641857
 30
0.0
 11
5.7830106587
 21
6.1027641857
 31
0.0
  0
LINE
  5
233
330
1F
100
AcDbEntity
  8
0
  6
Continuous
 62
     7
370
    15
100
AcDbLine
 10
5.7830106587
 20
6.1027641857
 30
0.0
 11
5.8230106587
 21
6.1027641857
 31
0.0
  0
LINE
  5
234
330
1F
100
AcDbEntity
  8
0
  6
Continuous
 62
     7
370
    15
100
AcDbLine
 10
5.8230106587
 20
6.1027641857
 30
0.0
 11
5.8230106587
 21
5.7747641857
 31
0.0
  0
ARC
  5
235
330
1F
100
AcDbEntity
  8
0
  6
Continuous
 62
     7
370
    15
100
AcDbCircle
 10
5.8380106587
 20
5.7747641857
 30
0.0
 40
0.0149999999999997
100
AcDbArc
 50
180.0
 51
270.0
  0
LINE
  5
236
330
1F
100
AcDbEntity
  8
0
  6
Continuous
 62
     7
370
    15
100
AcDbLine
 10
5.8380106587
 20
5.7597641857
 30
0.0
 11
5.9000106587
 21
5.7597641857
 31
0.0
  0
ARC
  5
237
330
1F
100
AcDbEntity
  8
0
  6
Continuous
 62
     7
370
    15
100
AcDbCircle
 10
5.9000106587
 20
5.7747641857
 30
0.0
 40
0.0149999999999997
100
AcDbArc
 50
270.0
 51
0.0
  0
LINE
  5
238
330
1F
100
AcDbEntity
  8
0
  6
Continuous
 62
     7
370
    15
100
AcDbLine
 10
5.9150106587
 20
5.7747641857
 30
0.0
 11
5.9150106587
 21
6.1027641857
 31
0.0
  0
LINE
  5
239
330
1F
100
AcDbEntity
  8
0
  6
Continuous
 62
     7
370
    15
100
AcDbLine
 10
5.9150106587
 20
6.1027641857
 30
0.0
 11
5.8820106587
 21
6.1357641857
 31
0.0
  0
LINE
  5
23A
330
1F
100
AcDbEntity
  8
0
  6
Continuous
 62
     7
370
    15
100
AcDbLine
 10
5.8820106587
 20
6.1357641857
 30
0.0
 11
5.8820106587
 21
6.3347641857
 31
0.0
  0
LINE
  5
23B
330
1F
100
AcDbEntity
  8
0
  6
Continuous
 62
     7
370
    15
100
AcDbLine
 10
5.8820106587
 20
6.3347641857
 30
0.0
 11
5.9320106587
 21
6.3847641857
 31
0.0
  0
LINE
  5
23C
330
1F
100
AcDbEntity
  8
0
  6
Continuous
 62
     7
370
    15
100
AcDbLine
 10
5.9320106587
 20
6.3847641857
 30
0.0
 11
5.8220106587
 21
6.3847641857
 31
0.0
  0
ARC
  5
23D
330
1F
100
AcDbEntity
  8
0
  6
Continuous
 62
     7
370
    15
100
AcDbCircle
 10
5.8220106587
 20
6.3697641857
 30
0.0
 40
0.0150000000000006
100
AcDbArc
 50
90.0
 51
180.0
  0
LINE
  5
23E
330
1F
100
AcDbEntity
  8
0
  6
Continuous
 62
     7
370
    15
100
AcDbLine
 10
5.5570106587
 20
6.3697641857
 30
0.0
 11
5.5570106587
 21
6.2074119963
 31
0.0
  0
ARC
  5
23F
330
1F
100
AcDbEntity
  8
0
  6
Continuous
 62
     7
370
    15
100
AcDbCircle
 10
5.4320106587
 20
6.2074119963
 30
0.0
 40
0.124999999999998
100
AcDbArc
 50
323.9009837413
 51
0.0
  0
LINE
  5
240
330
1F
100
AcDbEntity
  8
0
  6
Continuous
 62
     7
370
    15
100
AcDbLine
 10
5.5330106587
 20
6.1337641857
 30
0.0
 11
5.5330106587
 21
6.1027641857
 31
0.0
  0
LINE
  5
241
330
1F
100
AcDbEntity
  8
0
  6
Continuous
 62
     7
370
    15
100
AcDbLine
 10
5.5330106587
 20
6.1027641857
 30
0.0
 11
5.5730106587
 21
6.1027641857
 31
0.0
  0
LINE
  5
242
330
1F
100
AcDbEntity
  8
0
  6
Continuous
 62
     7
370
    15
100
AcDbLine
 10
5.5730106587
 20
6.1027641857
 30
0.0
 11
5.5730106587
 21
5.7747641857
 31
0.0
  0
ARC
  5
243
330
1F
100
AcDbEntity
  8
0
  6
Continuous
 62
     7
370
    15
100
AcDbCircle
 10
5.5880106587
 20
5.7747641857
 30
0.0
 40
0.0150000000000006
100
AcDbArc
 50
180.0
 51
270.0
  0
LINE
  5
244
330
1F
100
AcDbEntity
  8
0
  6
Continuous
 62
     7
370
    15
100
AcDbLine
 10
5.5880106587
 20
5.7597641857
 30
0.0
 11
5.6500106587
 21
5.7597641857
 31
0.0
  0
ARC
  5
245
330
1F
100
AcDbEntity
  8
0
  6
Continuous
 62
     7
370
    15
100
AcDbCircle
 10
5.6500106587
 20
5.7747641857
 30
0.0
 40
0.0150000000000006
100
AcDbArc
 50
270.0
 51
0.0
  0
LINE
  5
246
330
1F
100
AcDbEntity
  8
0
  6
Continuous
 62
     7
370
    15
100
AcDbLine
 10
5.6650106587
 20
5.7747641857
 30
0.0
 11
5.6650106587
 21
6.1027641857
 31
0.0
  0
LINE
  5
247
330
1F
100
AcDbEntity
  8
0
  6
Continuous
 62
     7
370
    15
100
AcDbLine
 10
5.6650106587
 20
6.1027641857
 30
0.0
 11
5.6320106587
 21
6.1357641857
 31
0.0
  0
LINE
  5
248
330
1F
100
AcDbEntity
  8
0
  6
Continuous
 62
     7
370
    15
100
AcDbLine
 10
5.6320106587
 20
6.1357641857
 30
0.0
 11
5.6320106587
 21
6.3347641857
 31
0.0
  0
LINE
  5
249
330
1F
100
AcDbEntity
  8
0
  6
Continuous
 62
     7
370
    15
100
AcDbLine
 10
5.6320106587
 20
6.3347641857
 30
0.0
 11
5.6820106587
 21
6.3847641857
 31
0.0
  0
LINE
  5
24A
330
1F
100
AcDbEntity
  8
0
  6
Continuous
 62
     7
370
    15
100
AcDbLine
 10
5.6820106587
 20
6.3847641857
 30
0.0
 11
5.5720106587
 21
6.3847641857
 31
0.0
  0
ARC
  5
24B
330
1F
100
AcDbEntity
  8
0
  6
Continuous
 62
     7
370
    15
100
AcDbCircle
 10
5.5720106587
 20
6.3697641857
 30
0.0
 40
0.0149999999999997
100
AcDbArc
 50
90.0
 51
180.0
  0
LINE
  5
24C
330
1F
100
AcDbEntity
  8
0
  6
Continuous
 62
     7
370
    15
100
AcDbLine
 10
5.3070106587
 20
6.3697641857
 30
0.0
 11
5.3070106587
 21
6.2074119963
 31
0.0
  0
ARC
  5
24D
330
1F
100
AcDbEntity
  8
0
  6
Continuous
 62
     7
370
    15
100
AcDbCircle
 10
5.1820106587
 20
6.2074119963
 30
0.0
 40
0.124999999999998
100
AcDbArc
 50
323.9009837413
 51
0.0
  0
LINE
  5
24E
330
1F
100
AcDbEntity
  8
0
  6
Continuous
 62
     7
370
    15
100
AcDbLine
 10
5.2830106587
 20
6.1337641857
 30
0.0
 11
5.2830106587
 21
6.1027641857
 31
0.0
  0
LINE
  5
24F
330
1F
100
AcDbEntity
  8
0
  6
Continuous
 62
     7
370
    15
100
AcDbLine
 10
5.2830106587
 20
6.1027641857
 30
0.0
 11
5.3230106587
 21
6.1027641857
 31
0.0
  0
LINE
  5
250
330
1F
100
AcDbEntity
  8
0
  6
Continuous
 62
     7
370
    15
100
AcDbLine
 10
5.3230106587
 20
6.1027641857
 30
0.0
 11
5.3230106587
 21
5.7747641857
 31
0.0
  0
ARC
  5
251
330
1F
100
AcDbEntity
  8
0
  6
Continuous
 62
     7
370
    15
100
AcDbCircle
 10
5.3380106587
 20
5.7747641857
 30
0.0
 40
0.0150000000000006
100
AcDbArc
 50
180.0
 51
270.0
  0
LINE
  5
252
330
1F
100
AcDbEntity
  8
0
  6
Continuous
 62
     7
370
    15
100
AcDbLine
 10
5.3380106587
 20
5.7597641857
 30
0.0
 11
5.4000106587
 21
5.7597641857
 31
0.0
  0
ARC
  5
253
330
1F
100
AcDbEntity
  8
0
  6
Continuous
 62
     7
370
    15
100
AcDbCircle
 10
5.4000106587
 20
5.7747641857
 30
0.0
 40
0.0149999999999997
100
AcDbArc
 50
270.0
 51
0.0
  0
LINE
  5
254
330
1F
100
AcDbEntity
  8
0
  6
Continuous
 62
     7
370
    15
100
AcDbLine
 10
5.4150106587
 20
5.7747641857
 30
0.0
 11
5.4150106587
 21
6.1027641857
 31
0.0
  0
LINE
  5
255
330
1F
100
AcDbEntity
  8
0
  6
Continuous
 62
     7
370
    15
100
AcDbLine
 10
5.4150106587
 20
6.1027641857
 30
0.0
 11
5.3820106587
 21
6.1357641857
 31
0.0
  0
LINE
  5
256
330
1F
100
AcDbEntity
  8
0
  6
Continuous
 62
     7
370
    15
100
AcDbLine
 10
5.3820106587
 20
6.1357641857
 30
0.0
 11
5.3820106587
 21
6.3347641857
 31
0.0
  0
LINE
  5
257
330
1F
100
AcDbEntity
  8
0
  6
Continuous
 62
     7
370
    15
100
AcDbLine
 10
5.3820106587
 20
6.3347641857
 30
0.0
 11
5.4320106587
 21
6.3847641857
 31
0.0
  0
LINE
  5
258
330
1F
100
AcDbEntity
  8
0
  6
Continuous
 62
     7
370
    15
100
AcDbLine
 10
5.4320106587
 20
6.3847641857
 30
0.0
 11
5.3220106587
 21
6.3847641857
 31
0.0
  0
ARC
  5
259
330
1F
100
AcDbEntity
  8
0
  6
Continuous
 62
     7
370
    15
100
AcDbCircle
 10
5.3220106587
 20
6.3697641857
 30
0.0
 40
0.0149999999999997
100
AcDbArc
 50
90.0
 51
180.0
  0
LINE
  5
25A
330
1F
100
AcDbEntity
  8
0
  6
Continuous
 62
     7
370
    15
100
AcDbLine
 10
5.0570106587
 20
6.3697641857
 30
0.0
 11
5.0570106587
 21
6.2074119963
 31
0.0
  0
ARC
  5
25B
330
1F
100
AcDbEntity
  8
0
  6
Continuous
 62
     7
370
    15
100
AcDbCircle
 10
4.9320106587
 20
6.2074119963
 30
0.0
 40
0.124999999999998
100
AcDbArc
 50
323.9009837413
 51
0.0
  0
LINE
  5
25C
330
1F
100
AcDbEntity
  8
0
  6
Continuous
 62
     7
370
    15
100
AcDbLine
 10
5.0330106587
 20
6.1337641857
 30
0.0
 11
5.0330106587
 21
6.1027641857
 31
0.0
  0
LINE
  5
25D
330
1F
100
AcDbEntity
  8
0
  6
Continuous
 62
     7
370
    15
100
AcDbLine
 10
5.0330106587
 20
6.1027641857
 30
0.0
 11
5.0730106587
 21
6.1027641857
 31
0.0
  0
LINE
  5
25E
330
1F
100
AcDbEntity
  8
0
  6
Continuous
 62
     7
370
    15
100
AcDbLine
 10
5.0730106587
 20
6.1027641857
 30
0.0
 11
5.0730106587
 21
5.7747641857
 31
0.0
  0
ARC
  5
25F
330
1F
100
AcDbEntity
  8
0
  6
Continuous
 62
     7
370
    15
100
AcDbCircle
 10
5.0880106587
 20
5.7747641857
 30
0.0
 40
0.0150000000000015
100
AcDbArc
 50
180.0
 51
270.0
  0
LINE
  5
260
330
1F
100
AcDbEntity
  8
0
  6
Continuous
 62
     7
370
    15
100
AcDbLine
 10
5.0880106587
 20
5.7597641857
 30
0.0
 11
5.1500106587
 21
5.7597641857
 31
0.0
  0
ARC
  5
261
330
1F
100
AcDbEntity
  8
0
  6
Continuous
 62
     7
370
    15
100
AcDbCircle
 10
5.1500106587
 20
5.7747641857
 30
0.0
 40
0.0150000000000006
100
AcDbArc
 50
270.0
 51
0.0
  0
LINE
  5
262
330
1F
100
AcDbEntity
  8
0
  6
Continuous
 62
     7
370
    15
100
AcDbLine
 10
5.1650106587
 20
5.7747641857
 30
0.0
 11
5.1650106587
 21
6.1027641857
 31
0.0
  0
LINE
  5
263
330
1F
100
AcDbEntity
  8
0
  6
Continuous
 62
     7
370
    15
100
AcDbLine
 10
5.1650106587
 20
6.1027641857
 30
0.0
 11
5.1320106587
 21
6.1357641857
 31
0.0
  0
LINE
  5
264
330
1F
100
AcDbEntity
  8
0
  6
Continuous
 62
     7
370
    15
100
AcDbLine
 10
5.1320106587
 20
6.1357641857
 30
0.0
 11
5.1320106587
 21
6.3347641857
 31
0.0
  0
LINE
  5
265
330
1F
100
AcDbEntity
  8
0
  6
Continuous
 62
     7
370
    15
100
AcDbLine
 10
5.1320106587
 20
6.3347641857
 30
0.0
 11
5.1820106587
 21
6.3847641857
 31
0.0
  0
LINE
  5
266
330
1F
100
AcDbEntity
  8
0
  6
Continuous
 62
     7
370
    15
100
AcDbLine
 10
5.1820106587
 20
6.3847641857
 30
0.0
 11
5.0720106587
 21
6.3847641857
 31
0.0
  0
ARC
  5
267
330
1F
100
AcDbEntity
  8
0
  6
Continuous
 62
     7
370
    15
100
AcDbCircle
 10
5.0720106587
 20
6.3697641857
 30
0.0
 40
0.0149999999999997
100
AcDbArc
 50
90.0
 51
180.0
  0
LINE
  5
268
330
1F
100
AcDbEntity
  8
0
  6
Continuous
 62
     7
370
    15
100
AcDbLine
 10
4.8070106587
 20
6.3697641857
 30
0.0
 11
4.8070106587
 21
6.2074119963
 31
0.0
  0
ARC
  5
269
330
1F
100
AcDbEntity
  8
0
  6
Continuous
 62
     7
370
    15
100
AcDbCircle
 10
4.6820106587
 20
6.2074119963
 30
0.0
 40
0.1249999999999987
100
AcDbArc
 50
323.9009837413
 51
0.0
  0
LINE
  5
26A
330
1F
100
AcDbEntity
  8
0
  6
Continuous
 62
     7
370
    15
100
AcDbLine
 10
4.7830106587
 20
6.1337641857
 30
0.0
 11
4.7830106587
 21
6.1027641857
 31
0.0
  0
LINE
  5
26B
330
1F
100
AcDbEntity
  8
0
  6
Continuous
 62
     7
370
    15
100
AcDbLine
 10
4.7830106587
 20
6.1027641857
 30
0.0
 11
4.8230106587
 21
6.1027641857
 31
0.0
  0
LINE
  5
26C
330
1F
100
AcDbEntity
  8
0
  6
Continuous
 62
     7
370
    15
100
AcDbLine
 10
4.8230106587
 20
6.1027641857
 30
0.0
 11
4.8230106587
 21
5.7747641857
 31
0.0
  0
ARC
  5
26D
330
1F
100
AcDbEntity
  8
0
  6
Continuous
 62
     7
370
    15
100
AcDbCircle
 10
4.8380106587
 20
5.7747641857
 30
0.0
 40
0.0150000000000006
100
AcDbArc
 50
180.0
 51
270.0
  0
LINE
  5
26E
330
1F
100
AcDbEntity
  8
0
  6
Continuous
 62
     7
370
    15
100
AcDbLine
 10
4.8380106587
 20
5.7597641857
 30
0.0
 11
4.9000106587
 21
5.7597641857
 31
0.0
  0
ARC
  5
26F
330
1F
100
AcDbEntity
  8
0
  6
Continuous
 62
     7
370
    15
100
AcDbCircle
 10
4.9000106587
 20
5.7747641857
 30
0.0
 40
0.0149999999999997
100
AcDbArc
 50
270.0
 51
0.0
  0
LINE
  5
270
330
1F
100
AcDbEntity
  8
0
  6
Continuous
 62
     7
370
    15
100
AcDbLine
 10
4.9150106587
 20
5.7747641857
 30
0.0
 11
4.9150106587
 21
6.1027641857
 31
0.0
  0
LINE
  5
271
330
1F
100
AcDbEntity
  8
0
  6
Continuous
 62
     7
370
    15
100
AcDbLine
 10
4.9150106587
 20
6.1027641857
 30
0.0
 11
4.8820106587
 21
6.1357641857
 31
0.0
  0
LINE
  5
272
330
1F
100
AcDbEntity
  8
0
  6
Continuous
 62
     7
370
    15
100
AcDbLine
 10
4.8820106587
 20
6.1357641857
 30
0.0
 11
4.8820106587
 21
6.3347641857
 31
0.0
  0
LINE
  5
273
330
1F
100
AcDbEntity
  8
0
  6
Continuous
 62
     7
370
    15
100
AcDbLine
 10
4.8820106587
 20
6.3347641857
 30
0.0
 11
4.9320106587
 21
6.3847641857
 31
0.0
  0
LINE
  5
274
330
1F
100
AcDbEntity
  8
0
  6
Continuous
 62
     7
370
    15
100
AcDbLine
 10
4.9320106587
 20
6.3847641857
 30
0.0
 11
4.8220106587
 21
6.3847641857
 31
0.0
  0
ARC
  5
275
330
1F
100
AcDbEntity
  8
0
  6
Continuous
 62
     7
370
    15
100
AcDbCircle
 10
4.8220106587
 20
6.3697641857
 30
0.0
 40
0.0150000000000006
100
AcDbArc
 50
90.0
 51
180.0
  0
LINE
  5
276
330
1F
100
AcDbEntity
  8
0
  6
Continuous
 62
     7
370
    15
100
AcDbLine
 10
4.5570106587
 20
6.3697641857
 30
0.0
 11
4.5570106587
 21
6.2074119963
 31
0.0
  0
ARC
  5
277
330
1F
100
AcDbEntity
  8
0
  6
Continuous
 62
     7
370
    15
100
AcDbCircle
 10
4.4320106587
 20
6.2074119963
 30
0.0
 40
0.1249999999999987
100
AcDbArc
 50
323.9009837413
 51
0.0
  0
LINE
  5
278
330
1F
100
AcDbEntity
  8
0
  6
Continuous
 62
     7
370
    15
100
AcDbLine
 10
4.5330106587
 20
6.1337641857
 30
0.0
 11
4.5330106587
 21
6.1027641857
 31
0.0
  0
LINE
  5
279
330
1F
100
AcDbEntity
  8
0
  6
Continuous
 62
     7
370
    15
100
AcDbLine
 10
4.5330106587
 20
6.1027641857
 30
0.0
 11
4.5730106587
 21
6.1027641857
 31
0.0
  0
LINE
  5
27A
330
1F
100
AcDbEntity
  8
0
  6
Continuous
 62
     7
370
    15
100
AcDbLine
 10
4.5730106587
 20
6.1027641857
 30
0.0
 11
4.5730106587
 21
5.7747641857
 31
0.0
  0
ARC
  5
27B
330
1F
100
AcDbEntity
  8
0
  6
Continuous
 62
     7
370
    15
100
AcDbCircle
 10
4.5880106587
 20
5.7747641857
 30
0.0
 40
0.0150000000000006
100
AcDbArc
 50
180.0
 51
270.0
  0
LINE
  5
27C
330
1F
100
AcDbEntity
  8
0
  6
Continuous
 62
     7
370
    15
100
AcDbLine
 10
4.5880106587
 20
5.7597641857
 30
0.0
 11
4.6500106587
 21
5.7597641857
 31
0.0
  0
ARC
  5
27D
330
1F
100
AcDbEntity
  8
0
  6
Continuous
 62
     7
370
    15
100
AcDbCircle
 10
4.6500106587
 20
5.7747641857
 30
0.0
 40
0.0149999999999997
100
AcDbArc
 50
270.0
 51
0.0
  0
LINE
  5
27E
330
1F
100
AcDbEntity
  8
0
  6
Continuous
 62
     7
370
    15
100
AcDbLine
 10
4.6650106587
 20
5.7747641857
 30
0.0
 11
4.6650106587
 21
6.1027641857
 31
0.0
  0
LINE
  5
27F
330
1F
100
AcDbEntity
  8
0
  6
Continuous
 62
     7
370
    15
100
AcDbLine
 10
4.6650106587
 20
6.1027641857
 30
0.0
 11
4.6320106587
 21
6.1357641857
 31
0.0
  0
LINE
  5
280
330
1F
100
AcDbEntity
  8
0
  6
Continuous
 62
     7
370
    15
100
AcDbLine
 10
4.6320106587
 20
6.1357641857
 30
0.0
 11
4.6320106587
 21
6.3347641857
 31
0.0
  0
LINE
  5
281
330
1F
100
AcDbEntity
  8
0
  6
Continuous
 62
     7
370
    15
100
AcDbLine
 10
4.6320106587
 20
6.3347641857
 30
0.0
 11
4.6820106587
 21
6.3847641857
 31
0.0
  0
LINE
  5
282
330
1F
100
AcDbEntity
  8
0
  6
Continuous
 62
     7
370
    15
100
AcDbLine
 10
4.6820106587
 20
6.3847641857
 30
0.0
 11
4.5720106587
 21
6.3847641857
 31
0.0
  0
ARC
  5
283
330
1F
100
AcDbEntity
  8
0
  6
Continuous
 62
     7
370
    15
100
AcDbCircle
 10
4.5720106587
 20
6.3697641857
 30
0.0
 40
0.0149999999999997
100
AcDbArc
 50
90.0
 51
180.0
  0
LINE
  5
284
330
1F
100
AcDbEntity
  8
0
  6
Continuous
 62
     7
370
    15
100
AcDbLine
 10
4.3070106587
 20
6.3697641857
 30
0.0
 11
4.3070106587
 21
6.2074119963
 31
0.0
  0
ARC
  5
285
330
1F
100
AcDbEntity
  8
0
  6
Continuous
 62
     7
370
    15
100
AcDbCircle
 10
4.1820106587
 20
6.2074119963
 30
0.0
 40
0.124999999999998
100
AcDbArc
 50
323.9009837413
 51
0.0
  0
LINE
  5
286
330
1F
100
AcDbEntity
  8
0
  6
Continuous
 62
     7
370
    15
100
AcDbLine
 10
4.2830106587
 20
6.1337641857
 30
0.0
 11
4.2830106587
 21
6.1027641857
 31
0.0
  0
LINE
  5
287
330
1F
100
AcDbEntity
  8
0
  6
Continuous
 62
     7
370
    15
100
AcDbLine
 10
4.2830106587
 20
6.1027641857
 30
0.0
 11
4.3230106587
 21
6.1027641857
 31
0.0
  0
LINE
  5
288
330
1F
100
AcDbEntity
  8
0
  6
Continuous
 62
     7
370
    15
100
AcDbLine
 10
4.3230106587
 20
6.1027641857
 30
0.0
 11
4.3230106587
 21
5.7747641857
 31
0.0
  0
ARC
  5
289
330
1F
100
AcDbEntity
  8
0
  6
Continuous
 62
     7
370
    15
100
AcDbCircle
 10
4.3380106587
 20
5.7747641857
 30
0.0
 40
0.0150000000000006
100
AcDbArc
 50
180.0
 51
270.0
  0
LINE
  5
28A
330
1F
100
AcDbEntity
  8
0
  6
Continuous
 62
     7
370
    15
100
AcDbLine
 10
4.3380106587
 20
5.7597641857
 30
0.0
 11
4.4000106587
 21
5.7597641857
 31
0.0
  0
ARC
  5
28B
330
1F
100
AcDbEntity
  8
0
  6
Continuous
 62
     7
370
    15
100
AcDbCircle
 10
4.4000106587
 20
5.7747641857
 30
0.0
 40
0.0149999999999997
100
AcDbArc
 50
270.0
 51
0.0
  0
LINE
  5
28C
330
1F
100
AcDbEntity
  8
0
  6
Continuous
 62
     7
370
    15
100
AcDbLine
 10
4.4150106587
 20
5.7747641857
 30
0.0
 11
4.4150106587
 21
6.1027641857
 31
0.0
  0
LINE
  5
28D
330
1F
100
AcDbEntity
  8
0
  6
Continuous
 62
     7
370
    15
100
AcDbLine
 10
4.4150106587
 20
6.1027641857
 30
0.0
 11
4.3820106587
 21
6.1357641857
 31
0.0
  0
LINE
  5
28E
330
1F
100
AcDbEntity
  8
0
  6
Continuous
 62
     7
370
    15
100
AcDbLine
 10
4.3820106587
 20
6.1357641857
 30
0.0
 11
4.3820106587
 21
6.3347641857
 31
0.0
  0
LINE
  5
28F
330
1F
100
AcDbEntity
  8
0
  6
Continuous
 62
     7
370
    15
100
AcDbLine
 10
4.3820106587
 20
6.3347641857
 30
0.0
 11
4.4320106587
 21
6.3847641857
 31
0.0
  0
LINE
  5
290
330
1F
100
AcDbEntity
  8
0
  6
Continuous
 62
     7
370
    15
100
AcDbLine
 10
4.4320106587
 20
6.3847641857
 30
0.0
 11
4.3220106587
 21
6.3847641857
 31
0.0
  0
ARC
  5
291
330
1F
100
AcDbEntity
  8
0
  6
Continuous
 62
     7
370
    15
100
AcDbCircle
 10
4.3220106587
 20
6.3697641857
 30
0.0
 40
0.0149999999999997
100
AcDbArc
 50
90.0
 51
180.0
  0
LINE
  5
292
330
1F
100
AcDbEntity
  8
0
  6
Continuous
 62
     7
370
    15
100
AcDbLine
 10
4.0570106587
 20
6.3697641857
 30
0.0
 11
4.0570106587
 21
6.2074119963
 31
0.0
  0
ARC
  5
293
330
1F
100
AcDbEntity
  8
0
  6
Continuous
 62
     7
370
    15
100
AcDbCircle
 10
3.9320106587
 20
6.2074119963
 30
0.0
 40
0.124999999999998
100
AcDbArc
 50
323.9009837413
 51
0.0
  0
LINE
  5
294
330
1F
100
AcDbEntity
  8
0
  6
Continuous
 62
     7
370
    15
100
AcDbLine
 10
4.0330106587
 20
6.1337641857
 30
0.0
 11
4.0330106587
 21
6.1027641857
 31
0.0
  0
LINE
  5
295
330
1F
100
AcDbEntity
  8
0
  6
Continuous
 62
     7
370
    15
100
AcDbLine
 10
4.0330106587
 20
6.1027641857
 30
0.0
 11
4.0730106587
 21
6.1027641857
 31
0.0
  0
LINE
  5
296
330
1F
100
AcDbEntity
  8
0
  6
Continuous
 62
     7
370
    15
100
AcDbLine
 10
4.0730106587
 20
6.1027641857
 30
0.0
 11
4.0730106587
 21
5.7747641857
 31
0.0
  0
ARC
  5
297
330
1F
100
AcDbEntity
  8
0
  6
Continuous
 62
     7
370
    15
100
AcDbCircle
 10
4.0880106587
 20
5.7747641857
 30
0.0
 40
0.0150000000000006
100
AcDbArc
 50
180.0
 51
270.0
  0
LINE
  5
298
330
1F
100
AcDbEntity
  8
0
  6
Continuous
 62
     7
370
    15
100
AcDbLine
 10
4.0880106587
 20
5.7597641857
 30
0.0
 11
4.1500106587
 21
5.7597641857
 31
0.0
  0
ARC
  5
299
330
1F
100
AcDbEntity
  8
0
  6
Continuous
 62
     7
370
    15
100
AcDbCircle
 10
4.1500106587
 20
5.7747641857
 30
0.0
 40
0.0150000000000006
100
AcDbArc
 50
270.0
 51
0.0
  0
LINE
  5
29A
330
1F
100
AcDbEntity
  8
0
  6
Continuous
 62
     7
370
    15
100
AcDbLine
 10
4.1650106587
 20
5.7747641857
 30
0.0
 11
4.1650106587
 21
6.1027641857
 31
0.0
  0
LINE
  5
29B
330
1F
100
AcDbEntity
  8
0
  6
Continuous
 62
     7
370
    15
100
AcDbLine
 10
4.1650106587
 20
6.1027641857
 30
0.0
 11
4.1320106587
 21
6.1357641857
 31
0.0
  0
LINE
  5
29C
330
1F
100
AcDbEntity
  8
0
  6
Continuous
 62
     7
370
    15
100
AcDbLine
 10
4.1320106587
 20
6.1357641857
 30
0.0
 11
4.1320106587
 21
6.3347641857
 31
0.0
  0
LINE
  5
29D
330
1F
100
AcDbEntity
  8
0
  6
Continuous
 62
     7
370
    15
100
AcDbLine
 10
4.1320106587
 20
6.3347641857
 30
0.0
 11
4.1820106587
 21
6.3847641857
 31
0.0
  0
LINE
  5
29E
330
1F
100
AcDbEntity
  8
0
  6
Continuous
 62
     7
370
    15
100
AcDbLine
 10
4.1820106587
 20
6.3847641857
 30
0.0
 11
4.0720106587
 21
6.3847641857
 31
0.0
  0
ARC
  5
29F
330
1F
100
AcDbEntity
  8
0
  6
Continuous
 62
     7
370
    15
100
AcDbCircle
 10
4.0720106587
 20
6.3697641857
 30
0.0
 40
0.0150000000000006
100
AcDbArc
 50
90.0
 51
180.0
  0
LINE
  5
2A0
330
1F
100
AcDbEntity
  8
0
  6
Continuous
 62
     7
370
    15
100
AcDbLine
 10
3.8070106587
 20
6.3697641857
 30
0.0
 11
3.8070106587
 21
6.2074119963
 31
0.0
  0
ARC
  5
2A1
330
1F
100
AcDbEntity
  8
0
  6
Continuous
 62
     7
370
    15
100
AcDbCircle
 10
3.6820106587
 20
6.2074119963
 30
0.0
 40
0.124999999999998
100
AcDbArc
 50
323.9009837413
 51
0.0
  0
LINE
  5
2A2
330
1F
100
AcDbEntity
  8
0
  6
Continuous
 62
     7
370
    15
100
AcDbLine
 10
3.7830106587
 20
6.1337641857
 30
0.0
 11
3.7830106587
 21
6.1027641857
 31
0.0
  0
LINE
  5
2A3
330
1F
100
AcDbEntity
  8
0
  6
Continuous
 62
     7
370
    15
100
AcDbLine
 10
3.7830106587
 20
6.1027641857
 30
0.0
 11
3.8230106587
 21
6.1027641857
 31
0.0
  0
LINE
  5
2A4
330
1F
100
AcDbEntity
  8
0
  6
Continuous
 62
     7
370
    15
100
AcDbLine
 10
3.8230106587
 20
6.1027641857
 30
0.0
 11
3.8230106587
 21
5.7747641857
 31
0.0
  0
ARC
  5
2A5
330
1F
100
AcDbEntity
  8
0
  6
Continuous
 62
     7
370
    15
100
AcDbCircle
 10
3.8380106587
 20
5.7747641857
 30
0.0
 40
0.0150000000000006
100
AcDbArc
 50
180.0
 51
270.0
  0
LINE
  5
2A6
330
1F
100
AcDbEntity
  8
0
  6
Continuous
 62
     7
370
    15
100
AcDbLine
 10
3.8380106587
 20
5.7597641857
 30
0.0
 11
3.9000106587
 21
5.7597641857
 31
0.0
  0
ARC
  5
2A7
330
1F
100
AcDbEntity
  8
0
  6
Continuous
 62
     7
370
    15
100
AcDbCircle
 10
3.9000106587
 20
5.7747641857
 30
0.0
 40
0.0150000000000006
100
AcDbArc
 50
270.0
 51
0.0
  0
LINE
  5
2A8
330
1F
100
AcDbEntity
  8
0
  6
Continuous
 62
     7
370
    15
100
AcDbLine
 10
3.9150106587
 20
5.7747641857
 30
0.0
 11
3.9150106587
 21
6.1027641857
 31
0.0
  0
LINE
  5
2A9
330
1F
100
AcDbEntity
  8
0
  6
Continuous
 62
     7
370
    15
100
AcDbLine
 10
3.9150106587
 20
6.1027641857
 30
0.0
 11
3.8820106587
 21
6.1357641857
 31
0.0
  0
LINE
  5
2AA
330
1F
100
AcDbEntity
  8
0
  6
Continuous
 62
     7
370
    15
100
AcDbLine
 10
3.8820106587
 20
6.1357641857
 30
0.0
 11
3.8820106587
 21
6.3347641857
 31
0.0
  0
LINE
  5
2AB
330
1F
100
AcDbEntity
  8
0
  6
Continuous
 62
     7
370
    15
100
AcDbLine
 10
3.8820106587
 20
6.3347641857
 30
0.0
 11
3.9320106587
 21
6.3847641857
 31
0.0
  0
LINE
  5
2AC
330
1F
100
AcDbEntity
  8
0
  6
Continuous
 62
     7
370
    15
100
AcDbLine
 10
3.9320106587
 20
6.3847641857
 30
0.0
 11
3.8220106587
 21
6.3847641857
 31
0.0
  0
ARC
  5
2AD
330
1F
100
AcDbEntity
  8
0
  6
Continuous
 62
     7
370
    15
100
AcDbCircle
 10
3.8220106587
 20
6.3697641857
 30
0.0
 40
0.0150000000000001
100
AcDbArc
 50
90.0
 51
180.0
  0
LINE
  5
2AE
330
1F
100
AcDbEntity
  8
0
  6
Continuous
 62
     7
370
    15
100
AcDbLine
 10
3.5570106587
 20
6.3697641857
 30
0.0
 11
3.5570106587
 21
6.2074119963
 31
0.0
  0
ARC
  5
2AF
330
1F
100
AcDbEntity
  8
0
  6
Continuous
 62
     7
370
    15
100
AcDbCircle
 10
3.4320106587
 20
6.2074119963
 30
0.0
 40
0.1249999999999983
100
AcDbArc
 50
323.9009837413
 51
0.0
  0
LINE
  5
2B0
330
1F
100
AcDbEntity
  8
0
  6
Continuous
 62
     7
370
    15
100
AcDbLine
 10
3.5330106587
 20
6.1337641857
 30
0.0
 11
3.5330106587
 21
6.1027641857
 31
0.0
  0
LINE
  5
2B1
330
1F
100
AcDbEntity
  8
0
  6
Continuous
 62
     7
370
    15
100
AcDbLine
 10
3.5330106587
 20
6.1027641857
 30
0.0
 11
3.5730106587
 21
6.1027641857
 31
0.0
  0
LINE
  5
2B2
330
1F
100
AcDbEntity
  8
0
  6
Continuous
 62
     7
370
    15
100
AcDbLine
 10
3.5730106587
 20
6.1027641857
 30
0.0
 11
3.5730106587
 21
5.7747641857
 31
0.0
  0
ARC
  5
2B3
330
1F
100
AcDbEntity
  8
0
  6
Continuous
 62
     7
370
    15
100
AcDbCircle
 10
3.5880106587
 20
5.7747641857
 30
0.0
 40
0.0150000000000006
100
AcDbArc
 50
180.0
 51
270.0
  0
LINE
  5
2B4
330
1F
100
AcDbEntity
  8
0
  6
Continuous
 62
     7
370
    15
100
AcDbLine
 10
3.5880106587
 20
5.7597641857
 30
0.0
 11
3.6500106587
 21
5.7597641857
 31
0.0
  0
ARC
  5
2B5
330
1F
100
AcDbEntity
  8
0
  6
Continuous
 62
     7
370
    15
100
AcDbCircle
 10
3.6500106587
 20
5.7747641857
 30
0.0
 40
0.0150000000000001
100
AcDbArc
 50
270.0
 51
0.0
  0
LINE
  5
2B6
330
1F
100
AcDbEntity
  8
0
  6
Continuous
 62
     7
370
    15
100
AcDbLine
 10
3.6650106587
 20
5.7747641857
 30
0.0
 11
3.6650106587
 21
6.1027641857
 31
0.0
  0
LINE
  5
2B7
330
1F
100
AcDbEntity
  8
0
  6
Continuous
 62
     7
370
    15
100
AcDbLine
 10
3.6650106587
 20
6.1027641857
 30
0.0
 11
3.6320106587
 21
6.1357641857
 31
0.0
  0
LINE
  5
2B8
330
1F
100
AcDbEntity
  8
0
  6
Continuous
 62
     7
370
    15
100
AcDbLine
 10
3.6320106587
 20
6.1357641857
 30
0.0
 11
3.6320106587
 21
6.3347641857
 31
0.0
  0
LINE
  5
2B9
330
1F
100
AcDbEntity
  8
0
  6
Continuous
 62
     7
370
    15
100
AcDbLine
 10
3.6320106587
 20
6.3347641857
 30
0.0
 11
3.6820106587
 21
6.3847641857
 31
0.0
  0
LINE
  5
2BA
330
1F
100
AcDbEntity
  8
0
  6
Continuous
 62
     7
370
    15
100
AcDbLine
 10
3.6820106587
 20
6.3847641857
 30
0.0
 11
3.5720106587
 21
6.3847641857
 31
0.0
  0
ARC
  5
2BB
330
1F
100
AcDbEntity
  8
0
  6
Continuous
 62
     7
370
    15
100
AcDbCircle
 10
3.5720106587
 20
6.3697641857
 30
0.0
 40
0.0150000000000006
100
AcDbArc
 50
90.0
 51
180.0
  0
LINE
  5
2BC
330
1F
100
AcDbEntity
  8
0
  6
Continuous
 62
     7
370
    15
100
AcDbLine
 10
3.3070106587
 20
6.3697641857
 30
0.0
 11
3.3070106587
 21
6.2074119963
 31
0.0
  0
ARC
  5
2BD
330
1F
100
AcDbEntity
  8
0
  6
Continuous
 62
     7
370
    15
100
AcDbCircle
 10
3.1820106587
 20
6.2074119963
 30
0.0
 40
0.124999999999999
100
AcDbArc
 50
323.9009837413
 51
0.0
  0
LINE
  5
2BE
330
1F
100
AcDbEntity
  8
0
  6
Continuous
 62
     7
370
    15
100
AcDbLine
 10
3.2830106587
 20
6.1337641857
 30
0.0
 11
3.2830106587
 21
6.1027641857
 31
0.0
  0
LINE
  5
2BF
330
1F
100
AcDbEntity
  8
0
  6
Continuous
 62
     7
370
    15
100
AcDbLine
 10
3.2830106587
 20
6.1027641857
 30
0.0
 11
3.3230106587
 21
6.1027641857
 31
0.0
  0
LINE
  5
2C0
330
1F
100
AcDbEntity
  8
0
  6
Continuous
 62
     7
370
    15
100
AcDbLine
 10
3.3230106587
 20
6.1027641857
 30
0.0
 11
3.3230106587
 21
5.7747641857
 31
0.0
  0
ARC
  5
2C1
330
1F
100
AcDbEntity
  8
0
  6
Continuous
 62
     7
370
    15
100
AcDbCircle
 10
3.3380106587
 20
5.7747641857
 30
0.0
 40
0.0150000000000006
100
AcDbArc
 50
180.0
 51
270.0
  0
LINE
  5
2C2
330
1F
100
AcDbEntity
  8
0
  6
Continuous
 62
     7
370
    15
100
AcDbLine
 10
3.3380106587
 20
5.7597641857
 30
0.0
 11
3.4000106587
 21
5.7597641857
 31
0.0
  0
ARC
  5
2C3
330
1F
100
AcDbEntity
  8
0
  6
Continuous
 62
     7
370
    15
100
AcDbCircle
 10
3.4000106587
 20
5.7747641857
 30
0.0
 40
0.0149999999999997
100
AcDbArc
 50
270.0
 51
0.0
  0
LINE
  5
2C4
330
1F
100
AcDbEntity
  8
0
  6
Continuous
 62
     7
370
    15
100
AcDbLine
 10
3.4150106587
 20
5.7747641857
 30
0.0
 11
3.4150106587
 21
6.1027641857
 31
0.0
  0
LINE
  5
2C5
330
1F
100
AcDbEntity
  8
0
  6
Continuous
 62
     7
370
    15
100
AcDbLine
 10
3.4150106587
 20
6.1027641857
 30
0.0
 11
3.3820106587
 21
6.1357641857
 31
0.0
  0
LINE
  5
2C6
330
1F
100
AcDbEntity
  8
0
  6
Continuous
 62
     7
370
    15
100
AcDbLine
 10
3.3820106587
 20
6.1357641857
 30
0.0
 11
3.3820106587
 21
6.3347641857
 31
0.0
  0
LINE
  5
2C7
330
1F
100
AcDbEntity
  8
0
  6
Continuous
 62
     7
370
    15
100
AcDbLine
 10
3.3820106587
 20
6.3347641857
 30
0.0
 11
3.4320106587
 21
6.3847641857
 31
0.0
  0
LINE
  5
2C8
330
1F
100
AcDbEntity
  8
0
  6
Continuous
 62
     7
370
    15
100
AcDbLine
 10
3.4320106587
 20
6.3847641857
 30
0.0
 11
3.3220106587
 21
6.3847641857
 31
0.0
  0
ARC
  5
2C9
330
1F
100
AcDbEntity
  8
0
  6
Continuous
 62
     7
370
    15
100
AcDbCircle
 10
3.3220106587
 20
6.3697641857
 30
0.0
 40
0.0150000000000006
100
AcDbArc
 50
90.0
 51
180.0
  0
LINE
  5
2CA
330
1F
100
AcDbEntity
  8
0
  6
Continuous
 62
     7
370
    15
100
AcDbLine
 10
3.0570106587
 20
6.3697641857
 30
0.0
 11
3.0570106587
 21
6.2074119963
 31
0.0
  0
ARC
  5
2CB
330
1F
100
AcDbEntity
  8
0
  6
Continuous
 62
     7
370
    15
100
AcDbCircle
 10
2.9320106587
 20
6.2074119963
 30
0.0
 40
0.1249999999999983
100
AcDbArc
 50
323.9009837413
 51
0.0
  0
LINE
  5
2CC
330
1F
100
AcDbEntity
  8
0
  6
Continuous
 62
     7
370
    15
100
AcDbLine
 10
3.0330106587
 20
6.1337641857
 30
0.0
 11
3.0330106587
 21
6.1027641857
 31
0.0
  0
LINE
  5
2CD
330
1F
100
AcDbEntity
  8
0
  6
Continuous
 62
     7
370
    15
100
AcDbLine
 10
3.0330106587
 20
6.1027641857
 30
0.0
 11
3.0730106587
 21
6.1027641857
 31
0.0
  0
LINE
  5
2CE
330
1F
100
AcDbEntity
  8
0
  6
Continuous
 62
     7
370
    15
100
AcDbLine
 10
3.0730106587
 20
6.1027641857
 30
0.0
 11
3.0730106587
 21
5.7747641857
 31
0.0
  0
ARC
  5
2CF
330
1F
100
AcDbEntity
  8
0
  6
Continuous
 62
     7
370
    15
100
AcDbCircle
 10
3.0880106587
 20
5.7747641857
 30
0.0
 40
0.0150000000000006
100
AcDbArc
 50
180.0
 51
270.0
  0
LINE
  5
2D0
330
1F
100
AcDbEntity
  8
0
  6
Continuous
 62
     7
370
    15
100
AcDbLine
 10
3.0880106587
 20
5.7597641857
 30
0.0
 11
3.1500106587
 21
5.7597641857
 31
0.0
  0
ARC
  5
2D1
330
1F
100
AcDbEntity
  8
0
  6
Continuous
 62
     7
370
    15
100
AcDbCircle
 10
3.1500106587
 20
5.7747641857
 30
0.0
 40
0.0149999999999997
100
AcDbArc
 50
270.0
 51
0.0
  0
LINE
  5
2D2
330
1F
100
AcDbEntity
  8
0
  6
Continuous
 62
     7
370
    15
100
AcDbLine
 10
3.1650106587
 20
5.7747641857
 30
0.0
 11
3.1650106587
 21
6.1027641857
 31
0.0
  0
LINE
  5
2D3
330
1F
100
AcDbEntity
  8
0
  6
Continuous
 62
     7
370
    15
100
AcDbLine
 10
3.1650106587
 20
6.1027641857
 30
0.0
 11
3.1320106587
 21
6.1357641857
 31
0.0
  0
LINE
  5
2D4
330
1F
100
AcDbEntity
  8
0
  6
Continuous
 62
     7
370
    15
100
AcDbLine
 10
3.1320106587
 20
6.1357641857
 30
0.0
 11
3.1320106587
 21
6.3347641857
 31
0.0
  0
LINE
  5
2D5
330
1F
100
AcDbEntity
  8
0
  6
Continuous
 62
     7
370
    15
100
AcDbLine
 10
3.1320106587
 20
6.3347641857
 30
0.0
 11
3.1820106587
 21
6.3847641857
 31
0.0
  0
LINE
  5
2D6
330
1F
100
AcDbEntity
  8
0
  6
Continuous
 62
     7
370
    15
100
AcDbLine
 10
3.1820106587
 20
6.3847641857
 30
0.0
 11
3.0720106587
 21
6.3847641857
 31
0.0
  0
ARC
  5
2D7
330
1F
100
AcDbEntity
  8
0
  6
Continuous
 62
     7
370
    15
100
AcDbCircle
 10
3.0720106587
 20
6.3697641857
 30
0.0
 40
0.0150000000000006
100
AcDbArc
 50
90.0
 51
180.0
  0
HATCH
  5
2D8
330
1F
100
AcDbEntity
  8
0
  6
Continuous
 62
     7
370
     0
100
AcDbHatch
 10
0.0
 20
0.0
 30
0.0
210
0.0
220
0.0
230
1.0
  2
ANSI32
 70
     0
 71
     0
 91
        1
 92
        0
 93
       69
 72
     2
 10
2.510010658679773
 20
5.652764185713234
 40
0.015
 50
90.0
 51
180.0
 73
     1
 72
     1
 10
2.495010658679773
 20
5.652764185713234
 11
2.495010658679774
 21
5.557764185713235
 72
     2
 10
2.510010658679774
 20
5.557764185713235
 40
0.015
 50
180.0
 51
270.0000000000043
 73
     1
 72
     1
 10
2.510010658679775
 20
5.542764185713234
 11
2.602010658679774
 21
5.542764185713235
 72
     2
 10
2.602010658679774
 20
5.557764185713235
 40
0.015
 50
270.0000000000008
 51
360.0000000000008
 73
     1
 72
     1
 10
2.617010658679774
 20
5.557764185713235
 11
2.617010658679773
 21
5.590764185713235
 72
     2
 10
2.632010658679774
 20
5.590764185713235
 40
0.015
 50
180.0
 51
269.9999999999974
 73
     0
 72
     1
 10
2.632010658679773
 20
5.605764185713235
 11
2.792010658679773
 21
5.605764185713236
 72
     2
 10
2.792010658679773
 20
5.590764185713236
 40
0.015
 50
270.0000000000008
 51
360.0000000000008
 73
     0
 72
     1
 10
2.807010658679773
 20
5.590764185713236
 11
2.807010658679775
 21
5.435764185713237
 72
     2
 10
2.792010658679775
 20
5.435764185713237
 40
0.015
 50
0.0
 51
89.99999999999153
 73
     0
 72
     1
 10
2.792010658679777
 20
5.420764185713237
 11
2.260010658679777
 21
5.420764185713232
 72
     2
 10
2.260010658679778
 20
5.405764185713233
 40
0.015
 50
90.0000000000034
 51
180.0000000000076
 73
     1
 72
     1
 10
2.245010658679778
 20
5.405764185713231
 11
2.245010658679778
 21
5.305764185713232
 72
     2
 10
2.260010658679778
 20
5.305764185713232
 40
0.015
 50
180.0
 51
270.0000000000008
 73
     1
 72
     1
 10
2.260010658679778
 20
5.290764185713233
 11
2.292010658679783
 21
5.290764185713233
 72
     2
 10
2.292010658679783
 20
5.305764185713232
 40
0.015
 50
270.0000000000008
 51
360.0000000000043
 73
     1
 72
     1
 10
2.307010658679782
 20
5.305764185713233
 11
2.307010658679782
 21
5.343764185713233
 72
     2
 10
2.322010658679782
 20
5.343764185713233
 40
0.015
 50
180.0
 51
270.0000000000008
 73
     0
 72
     1
 10
2.322010658679782
 20
5.358764185713233
 11
2.355010658679781
 21
5.358764185713233
 72
     2
 10
2.355010658679781
 20
5.343764185713233
 40
0.015
 50
270.0000000000008
 51
360.0000000000008
 73
     0
 72
     1
 10
2.370010658679781
 20
5.343764185713233
 11
2.370010658679785
 21
4.748764185713234
 72
     2
 10
2.355010658679785
 20
4.748764185713234
 40
0.015
 50
0.0
 51
90.0
 73
     0
 72
     1
 10
2.355010658679785
 20
4.733764185713233
 11
2.322010658679786
 21
4.733764185713233
 72
     2
 10
2.322010658679786
 20
4.748764185713234
 40
0.015
 50
90.0
 51
180.0
 73
     0
 72
     1
 10
2.307010658679785
 20
4.748764185713234
 11
2.307010658679786
 21
4.786764185713232
 72
     2
 10
2.292010658679786
 20
4.786764185713232
 40
0.015
 50
0.0
 51
90.0000000000017
 73
     1
 72
     1
 10
2.292010658679786
 20
4.801764185713233
 11
2.260010658679781
 21
4.801764185713232
 72
     2
 10
2.260010658679782
 20
4.786764185713232
 40
0.015
 50
90.0000000000017
 51
180.0000000000042
 73
     1
 72
     1
 10
2.245010658679782
 20
4.786764185713231
 11
2.245010658679783
 21
4.686764185713228
 72
     2
 10
2.260010658679783
 20
4.686764185713228
 40
0.015
 50
180.0
 51
270.0000000000043
 73
     1
 72
     1
 10
2.260010658679783
 20
4.671764185713228
 11
2.417010658679782
 21
4.67176418571323
 72
     2
 10
2.417010658679781
 20
4.68676418571323
 40
0.015
 50
270.0000000000043
 51
360.0000000000008
 73
     1
 72
     1
 10
2.432010658679781
 20
4.68676418571323
 11
2.432010658679776
 21
5.343764185713234
 72
     2
 10
2.447010658679776
 20
5.343764185713234
 40
0.015
 50
180.0
 51
270.0000000000008
 73
     0
 72
     1
 10
2.447010658679776
 20
5.358764185713234
 11
2.792010658679775
 21
5.358764185713236
 72
     2
 10
2.792010658679775
 20
5.343764185713236
 40
0.015
 50
270.0000000000008
 51
360.0000000000008
 73
     0
 72
     1
 10
2.807010658679775
 20
5.343764185713236
 11
2.807010658679787
 21
3.742764185713237
 72
     2
 10
2.822010658679786
 20
3.742764185713237
 40
0.015
 50
180.0
 51
270.0000000000008
 73
     1
 72
     1
 10
2.822010658679786
 20
3.727764185713237
 11
2.854010658679786
 21
3.727764185713237
 72
     2
 10
2.854010658679786
 20
3.742764185713238
 40
0.015
 50
270.0000000000008
 51
360.0000000000008
 73
     1
 72
     1
 10
2.869010658679787
 20
3.742764185713238
 11
2.869010658679779
 21
4.890764185713238
 72
     2
 10
2.884010658679778
 20
4.890764185713238
 40
0.015
 50
180.0
 51
270.0000000000144
 73
     0
 72
     1
 10
2.884010658679782
 20
4.905764185713237
 11
3.042010658679779
 21
4.905764185713238
 72
     2
 10
3.042010658679779
 20
4.920764185713238
 40
0.015
 50
270.0000000000008
 51
360.0000000000043
 73
     1
 72
     1
 10
3.057010658679778
 20
4.920764185713239
 11
3.057010658679778
 21
4.952764185713238
 72
     2
 10
3.042010658679778
 20
4.952764185713238
 40
0.015
 50
0.0
 51
90.00000000000679
 73
     1
 72
     1
 10
3.042010658679776
 20
4.967764185713239
 11
2.884010658679778
 21
4.967764185713237
 72
     2
 10
2.884010658679778
 20
4.982764185713237
 40
0.015
 50
90.0
 51
180.0
 73
     0
 72
     1
 10
2.869010658679778
 20
4.982764185713237
 11
2.869010658679777
 21
5.151764185713237
 72
     2
 10
2.884010658679776
 20
5.151764185713237
 40
0.015
 50
180.0
 51
270.0000000000229
 73
     0
 72
     1
 10
2.884010658679782
 20
5.166764185713237
 11
3.104010658679777
 21
5.166764185713238
 72
     2
 10
3.104010658679777
 20
5.181764185713238
 40
0.015
 50
270.0000000000025
 51
360.0000000000008
 73
     1
 72
     1
 10
3.119010658679777
 20
5.181764185713238
 11
3.119010658679776
 21
5.213764185713239
 72
     2
 10
3.104010658679776
 20
5.213764185713239
 40
0.015
 50
0.0
 51
90.0
 73
     1
 72
     1
 10
3.104010658679776
 20
5.228764185713239
 11
2.884010658679784
 21
5.228764185713237
 72
     2
 10
2.884010658679776
 20
5.243764185713238
 40
0.015
 50
89.99999999997117
 51
179.9999999999932
 73
     0
 72
     1
 10
2.869010658679776
 20
5.243764185713236
 11
2.869010658679768
 21
6.384764185713237
 72
     1
 10
2.869010658679768
 20
6.384764185713237
 11
2.864010658679768
 21
6.384764185713237
 72
     2
 10
2.864010658679768
 20
6.359764185713238
 40
0.025
 50
90.0
 51
180.0000000000028
 73
     1
 72
     1
 10
2.839010658679768
 20
6.359764185713237
 11
2.839010658679768
 21
6.352764185713236
 72
     1
 10
2.839010658679768
 20
6.352764185713236
 11
1.244010658679767
 21
6.332764185713225
 72
     1
 10
1.244010658679767
 20
6.332764185713225
 11
1.244010658679769
 21
6.317764185713226
 72
     2
 10
1.269010658679768
 20
6.317764185713226
 40
0.025
 50
180.0
 51
270.0000000000161
 73
     1
 72
     1
 10
1.269010658679775
 20
6.292764185713225
 11
2.792010658679768
 21
6.292764185713237
 72
     2
 10
2.792010658679768
 20
6.277764185713237
 40
0.015
 50
270.0000000000008
 51
360.0000000000008
 73
     0
 72
     1
 10
2.807010658679769
 20
6.277764185713237
 11
2.807010658679773
 21
5.682764185713236
 72
     2
 10
2.792010658679773
 20
5.682764185713236
 40
0.015
 50
0.0
 51
90.0
 73
     0
 72
     1
 10
2.792010658679773
 20
5.667764185713237
 11
2.510010658679773
 21
5.667764185713234
 97
        0
 75
     0
 76
     1
 52
0.0
 41
1.0
 77
     0
 78
     2
 53
45.0
 43
0.0
 44
0.0
 45
-0.2651650429449553
 46
0.2651650429449554
 79
     0
 53
45.0
 43
0.176776695
 44
0.0
 45
-0.2651650429449553
 46
0.2651650429449554
 79
     0
 98
        1
 10
0.0
 20
0.0
  0
HATCH
  5
2D9
330
1F
100
AcDbEntity
  8
0
  6
Continuous
 62
     7
370
     0
100
AcDbHatch
 10
0.0
 20
0.0
 30
0.0
210
0.0
220
0.0
230
1.0
  2
ANSI32
 70
     0
 71
     0
 91
        1
 92
        0
 93
       69
 72
     2
 10
8.47801065867977
 20
5.557764185713276
 40
0.015
 50
269.999999999994
 51
360.0000000000008
 73
     1
 72
     1
 10
8.493010658679768
 20
5.557764185713276
 11
8.493010658679768
 21
5.652764185713276
 72
     2
 10
8.478010658679768
 20
5.652764185713276
 40
0.015
 50
0.0
 51
90.0
 73
     1
 72
     1
 10
8.478010658679768
 20
5.667764185713277
 11
8.196010658679768
 21
5.667764185713275
 72
     2
 10
8.196010658679768
 20
5.682764185713275
 40
0.015
 50
90.0
 51
180.0
 73
     0
 72
     1
 10
8.181010658679769
 20
5.682764185713275
 11
8.181010658679764
 21
6.277764185713275
 72
     2
 10
8.196010658679764
 20
6.277764185713275
 40
0.015
 50
180.0
 51
270.0000000000008
 73
     0
 72
     1
 10
8.196010658679764
 20
6.292764185713275
 11
9.719010658679759
 21
6.292764185713286
 72
     2
 10
9.719010658679766
 20
6.317764185713285
 40
0.025
 50
269.9999999999845
 51
360.0000000000008
 73
     1
 72
     1
 10
9.744010658679764
 20
6.317764185713285
 11
9.744010658679764
 21
6.332764185713285
 72
     1
 10
9.744010658679764
 20
6.332764185713285
 11
8.149010658679764
 21
6.352764185713275
 72
     1
 10
8.149010658679764
 20
6.352764185713275
 11
8.149010658679764
 21
6.359764185713275
 72
     2
 10
8.124010658679763
 20
6.359764185713273
 40
0.025
 50
0.0000000000040711
 51
90.0
 73
     1
 72
     1
 10
8.124010658679763
 20
6.384764185713274
 11
8.119010658679763
 21
6.384764185713274
 72
     1
 10
8.119010658679763
 20
6.384764185713274
 11
8.119010658679771
 21
5.243764185713274
 72
     2
 10
8.104010658679773
 20
5.243764185713274
 40
0.015
 50
0.0
 51
90.00000000003394
 73
     0
 72
     1
 10
8.104010658679764
 20
5.228764185713274
 11
7.884010658679771
 21
5.228764185713272
 72
     2
 10
7.884010658679771
 20
5.213764185713273
 40
0.015
 50
90.0
 51
180.0
 73
     1
 72
     1
 10
7.869010658679771
 20
5.213764185713273
 11
7.869010658679773
 21
5.181764185713273
 72
     2
 10
7.884010658679773
 20
5.181764185713273
 40
0.015
 50
180.0
 51
270.0000000000008
 73
     1
 72
     1
 10
7.884010658679773
 20
5.166764185713273
 11
8.104010658679766
 21
5.166764185713274
 72
     2
 10
8.104010658679773
 20
5.151764185713274
 40
0.015
 50
269.9999999999737
 51
360.0000000000008
 73
     0
 72
     1
 10
8.119010658679771
 20
5.151764185713274
 11
8.119010658679773
 21
4.982764185713275
 72
     2
 10
8.104010658679773
 20
4.982764185713275
 40
0.015
 50
0.0
 51
90.0
 73
     0
 72
     1
 10
8.104010658679773
 20
4.967764185713274
 11
7.946010658679775
 21
4.967764185713273
 72
     2
 10
7.946010658679774
 20
4.952764185713273
 40
0.015
 50
89.99999999999662
 51
180.0
 73
     1
 72
     1
 10
7.931010658679774
 20
4.952764185713273
 11
7.931010658679774
 21
4.920764185713273
 72
     2
 10
7.946010658679774
 20
4.920764185713273
 40
0.015
 50
180.0
 51
270.0000000000008
 73
     1
 72
     1
 10
7.946010658679774
 20
4.905764185713274
 11
8.10401065867977
 21
4.905764185713275
 72
     2
 10
8.104010658679774
 20
4.890764185713274
 40
0.015
 50
269.9999999999872
 51
360.0000000000008
 73
     0
 72
     1
 10
8.119010658679773
 20
4.890764185713274
 11
8.119010658679782
 21
3.742764185713274
 72
     2
 10
8.134010658679783
 20
3.742764185713274
 40
0.015
 50
180.0
 51
270.0000000000008
 73
     1
 72
     1
 10
8.134010658679783
 20
3.727764185713274
 11
8.166010658679783
 21
3.727764185713275
 72
     2
 10
8.166010658679783
 20
3.742764185713275
 40
0.015
 50
270.0000000000008
 51
360.0000000000008
 73
     1
 72
     1
 10
8.181010658679781
 20
3.742764185713275
 11
8.18101065867977
 21
5.343764185713274
 72
     2
 10
8.196010658679771
 20
5.343764185713274
 40
0.015
 50
180.0
 51
270.0000000000008
 73
     0
 72
     1
 10
8.196010658679771
 20
5.358764185713274
 11
8.54101065867977
 21
5.358764185713277
 72
     2
 10
8.54101065867977
 20
5.343764185713277
 40
0.015
 50
270.0000000000008
 51
360.0000000000008
 73
     0
 72
     1
 10
8.55601065867977
 20
5.343764185713277
 11
8.556010658679774
 21
4.686764185713272
 72
     2
 10
8.571010658679775
 20
4.686764185713273
 40
0.015
 50
180.0000000000042
 51
270.0000000000008
 73
     1
 72
     1
 10
8.571010658679775
 20
4.671764185713273
 11
8.728010658679773
 21
4.671764185713275
 72
     2
 10
8.728010658679773
 20
4.686764185713274
 40
0.015
 50
270.0000000000008
 51
359.9999999999974
 73
     1
 72
     1
 10
8.743010658679774
 20
4.686764185713273
 11
8.743010658679772
 21
4.786764185713277
 72
     2
 10
8.728010658679773
 20
4.786764185713278
 40
0.015
 50
359.9999999999974
 51
450.0000000000008
 73
     1
 72
     1
 10
8.728010658679773
 20
4.801764185713278
 11
8.696010658679768
 21
4.801764185713278
 72
     2
 10
8.69601065867977
 20
4.786764185713277
 40
0.015
 50
90.00000000000679
 51
180.0
 73
     1
 72
     1
 10
8.681010658679769
 20
4.786764185713277
 11
8.681010658679769
 21
4.748764185713278
 72
     2
 10
8.66601065867977
 20
4.748764185713278
 40
0.015
 50
0.0
 51
90.0
 73
     0
 72
     1
 10
8.66601065867977
 20
4.733764185713278
 11
8.633010658679769
 21
4.733764185713278
 72
     2
 10
8.633010658679769
 20
4.748764185713277
 40
0.015
 50
90.0
 51
180.0
 73
     0
 72
     1
 10
8.61801065867977
 20
4.748764185713277
 11
8.618010658679765
 21
5.343764185713277
 72
     2
 10
8.633010658679765
 20
5.343764185713278
 40
0.015
 50
179.9999999999966
 51
270.0000000000008
 73
     0
 72
     1
 10
8.633010658679765
 20
5.358764185713278
 11
8.666010658679765
 21
5.358764185713278
 72
     2
 10
8.666010658679765
 20
5.343764185713278
 40
0.015
 50
270.0000000000008
 51
360.0000000000008
 73
     0
 72
     1
 10
8.681010658679764
 20
5.343764185713278
 11
8.681010658679766
 21
5.305764185713278
 72
     2
 10
8.696010658679764
 20
5.305764185713278
 40
0.015
 50
180.0
 51
270.0000000000008
 73
     1
 72
     1
 10
8.696010658679764
 20
5.290764185713277
 11
8.72801065867977
 21
5.290764185713278
 72
     2
 10
8.72801065867977
 20
5.305764185713278
 40
0.015
 50
270.0000000000008
 51
359.9999999999974
 73
     1
 72
     1
 10
8.743010658679768
 20
5.305764185713277
 11
8.743010658679768
 21
5.405764185713277
 72
     2
 10
8.728010658679768
 20
5.405764185713278
 40
0.015
 50
359.9999999999974
 51
450.0000000000008
 73
     1
 72
     1
 10
8.728010658679768
 20
5.420764185713278
 11
8.196010658679768
 21
5.420764185713273
 72
     2
 10
8.19601065867977
 20
5.435764185713275
 40
0.015
 50
90.00000000000679
 51
179.9999999999932
 73
     0
 72
     1
 10
8.18101065867977
 20
5.435764185713273
 11
8.181010658679769
 21
5.590764185713274
 72
     2
 10
8.19601065867977
 20
5.590764185713274
 40
0.015
 50
180.0
 51
270.0000000000008
 73
     0
 72
     1
 10
8.19601065867977
 20
5.605764185713274
 11
8.35601065867977
 21
5.605764185713275
 72
     2
 10
8.35601065867977
 20
5.590764185713275
 40
0.015
 50
270.0000000000008
 51
360.0000000000008
 73
     0
 72
     1
 10
8.371010658679769
 20
5.590764185713275
 11
8.371010658679769
 21
5.557764185713276
 72
     2
 10
8.38601065867977
 20
5.557764185713276
 40
0.015
 50
180.0
 51
270.0000000000008
 73
     1
 72
     1
 10
8.38601065867977
 20
5.542764185713275
 11
8.478010658679768
 21
5.542764185713277
 97
        0
 75
     0
 76
     1
 52
0.0
 41
1.0
 77
     0
 78
     2
 53
45.0
 43
0.0
 44
0.0
 45
-0.2651650429449553
 46
0.2651650429449554
 79
     0
 53
45.0
 43
0.176776695
 44
0.0
 45
-0.2651650429449553
 46
0.2651650429449554
 79
     0
 98
        1
 10
0.0
 20
0.0
  0
HATCH
  5
2DA
330
1F
100
AcDbEntity
  8
0
  6
Continuous
 62
     7
370
     0
100
AcDbHatch
 10
0.0
 20
0.0
 30
0.0
210
0.0
220
0.0
230
1.0
  2
ANSI32
 70
     0
 71
     0
 91
        1
 92
        0
 93
       14
 72
     1
 10
7.807010658679763
 20
6.369764185713287
 11
7.807010658679768
 21
6.207411996271377
 72
     2
 10
7.68201065867977
 20
6.207411996271377
 40
0.125
 50
0.0
 51
36.09901625873279
 73
     0
 72
     1
 10
7.783010658679768
 20
6.133764185713289
 11
7.783010658679768
 21
6.10276418571329
 72
     1
 10
7.783010658679768
 20
6.10276418571329
 11
7.823010658679768
 21
6.10276418571329
 72
     1
 10
7.823010658679768
 20
6.10276418571329
 11
7.823010658679768
 21
5.774764185713288
 72
     2
 10
7.838010658679767
 20
5.774764185713288
 40
0.0150000000000001
 50
180.0
 51
270.0000000000008
 73
     1
 72
     1
 10
7.838010658679767
 20
5.759764185713287
 11
7.900010658679766
 21
5.759764185713288
 72
     2
 10
7.900010658679766
 20
5.774764185713288
 40
0.0149999999999998
 50
270.0000000000008
 51
360.0000000000008
 73
     1
 72
     1
 10
7.915010658679766
 20
5.774764185713288
 11
7.915010658679766
 21
6.10276418571329
 72
     1
 10
7.915010658679766
 20
6.10276418571329
 11
7.882010658679769
 21
6.135764185713287
 72
     1
 10
7.882010658679769
 20
6.135764185713287
 11
7.882010658679764
 21
6.334764185713282
 72
     1
 10
7.882010658679764
 20
6.334764185713282
 11
7.93201065867977
 21
6.384764185713287
 72
     1
 10
7.93201065867977
 20
6.384764185713287
 11
7.822010658679763
 21
6.384764185713287
 72
     2
 10
7.822010658679763
 20
6.369764185713287
 40
0.0149999999999997
 50
90.0
 51
180.0
 73
     1
 97
        0
 75
     0
 76
     1
 52
0.0
 41
1.0
 77
     0
 78
     2
 53
45.0
 43
0.0
 44
0.0
 45
-0.2651650429449553
 46
0.2651650429449554
 79
     0
 53
45.0
 43
0.176776695
 44
0.0
 45
-0.2651650429449553
 46
0.2651650429449554
 79
     0
 98
        1
 10
0.0
 20
0.0
  0
HATCH
  5
2DB
330
1F
100
AcDbEntity
  8
0
  6
Continuous
 62
     7
370
     0
100
AcDbHatch
 10
0.0
 20
0.0
 30
0.0
210
0.0
220
0.0
230
1.0
  2
ANSI32
 70
     0
 71
     0
 91
        1
 92
        0
 93
       14
 72
     1
 10
7.557010658679764
 20
6.369764185713285
 11
7.557010658679768
 21
6.207411996271376
 72
     2
 10
7.432010658679771
 20
6.207411996271376
 40
0.125
 50
0.0
 51
36.09901625873336
 73
     0
 72
     1
 10
7.533010658679768
 20
6.133764185713287
 11
7.533010658679768
 21
6.102764185713288
 72
     1
 10
7.533010658679768
 20
6.102764185713288
 11
7.573010658679769
 21
6.102764185713288
 72
     1
 10
7.573010658679769
 20
6.102764185713288
 11
7.573010658679767
 21
5.774764185713285
 72
     2
 10
7.588010658679768
 20
5.774764185713287
 40
0.0150000000000001
 50
180.0000000000076
 51
270.0000000000008
 73
     1
 72
     1
 10
7.588010658679768
 20
5.759764185713285
 11
7.650010658679766
 21
5.759764185713287
 72
     2
 10
7.650010658679766
 20
5.774764185713285
 40
0.0149999999999998
 50
270.0000000000008
 51
360.0000000000008
 73
     1
 72
     1
 10
7.665010658679765
 20
5.774764185713285
 11
7.665010658679767
 21
6.102764185713288
 72
     1
 10
7.665010658679767
 20
6.102764185713288
 11
7.632010658679769
 21
6.135764185713285
 72
     1
 10
7.632010658679769
 20
6.135764185713285
 11
7.632010658679764
 21
6.33476418571328
 72
     1
 10
7.632010658679764
 20
6.33476418571328
 11
7.68201065867977
 21
6.384764185713284
 72
     1
 10
7.68201065867977
 20
6.384764185713284
 11
7.572010658679764
 21
6.384764185713284
 72
     2
 10
7.572010658679764
 20
6.369764185713285
 40
0.0149999999999997
 50
90.0
 51
180.0
 73
     1
 97
        0
 75
     0
 76
     1
 52
0.0
 41
1.0
 77
     0
 78
     2
 53
45.0
 43
0.0
 44
0.0
 45
-0.2651650429449553
 46
0.2651650429449554
 79
     0
 53
45.0
 43
0.176776695
 44
0.0
 45
-0.2651650429449553
 46
0.2651650429449554
 79
     0
 98
        1
 10
0.0
 20
0.0
  0
HATCH
  5
2DC
330
1F
100
AcDbEntity
  8
0
  6
Continuous
 62
     7
370
     0
100
AcDbHatch
 10
0.0
 20
0.0
 30
0.0
210
0.0
220
0.0
230
1.0
  2
ANSI32
 70
     0
 71
     0
 91
        1
 92
        0
 93
       14
 72
     1
 10
7.307010658679764
 20
6.369764185713283
 11
7.307010658679767
 21
6.207411996271373
 72
     2
 10
7.18201065867977
 20
6.207411996271373
 40
0.125
 50
0.0
 51
36.0990162587327
 73
     0
 72
     1
 10
7.283010658679768
 20
6.133764185713286
 11
7.283010658679768
 21
6.102764185713287
 72
     1
 10
7.283010658679768
 20
6.102764185713287
 11
7.323010658679769
 21
6.102764185713287
 72
     1
 10
7.323010658679769
 20
6.102764185713287
 11
7.323010658679768
 21
5.774764185713284
 72
     2
 10
7.338010658679767
 20
5.774764185713284
 40
0.0150000000000001
 50
180.0
 51
270.0000000000008
 73
     1
 72
     1
 10
7.338010658679767
 20
5.759764185713284
 11
7.400010658679767
 21
5.759764185713284
 72
     2
 10
7.400010658679767
 20
5.774764185713284
 40
0.0149999999999998
 50
270.0000000000008
 51
360.0000000000008
 73
     1
 72
     1
 10
7.415010658679766
 20
5.774764185713284
 11
7.415010658679767
 21
6.102764185713287
 72
     1
 10
7.415010658679767
 20
6.102764185713287
 11
7.382010658679769
 21
6.135764185713284
 72
     1
 10
7.382010658679769
 20
6.135764185713284
 11
7.382010658679764
 21
6.334764185713278
 72
     1
 10
7.382010658679764
 20
6.334764185713278
 11
7.432010658679771
 21
6.384764185713283
 72
     1
 10
7.432010658679771
 20
6.384764185713283
 11
7.322010658679764
 21
6.384764185713284
 72
     2
 10
7.322010658679764
 20
6.369764185713283
 40
0.0149999999999997
 50
90.0
 51
180.0
 73
     1
 97
        0
 75
     0
 76
     1
 52
0.0
 41
1.0
 77
     0
 78
     2
 53
45.0
 43
0.0
 44
0.0
 45
-0.2651650429449553
 46
0.2651650429449554
 79
     0
 53
45.0
 43
0.176776695
 44
0.0
 45
-0.2651650429449553
 46
0.2651650429449554
 79
     0
 98
        1
 10
0.0
 20
0.0
  0
HATCH
  5
2DD
330
1F
100
AcDbEntity
  8
0
  6
Continuous
 62
     7
370
     0
100
AcDbHatch
 10
0.0
 20
0.0
 30
0.0
210
0.0
220
0.0
230
1.0
  2
ANSI32
 70
     0
 71
     0
 91
        1
 92
        0
 93
       14
 72
     1
 10
7.057010658679764
 20
6.36976418571328
 11
7.057010658679769
 21
6.207411996271372
 72
     2
 10
6.932010658679771
 20
6.207411996271372
 40
0.125
 50
0.0
 51
36.09901625873303
 73
     0
 72
     1
 10
7.033010658679768
 20
6.133764185713283
 11
7.033010658679768
 21
6.102764185713284
 72
     1
 10
7.033010658679768
 20
6.102764185713284
 11
7.073010658679768
 21
6.102764185713284
 72
     1
 10
7.073010658679768
 20
6.102764185713284
 11
7.073010658679768
 21
5.774764185713282
 72
     2
 10
7.088010658679768
 20
5.774764185713282
 40
0.0150000000000001
 50
180.0
 51
270.0000000000008
 73
     1
 72
     1
 10
7.088010658679768
 20
5.759764185713283
 11
7.150010658679767
 21
5.759764185713283
 72
     2
 10
7.150010658679767
 20
5.774764185713282
 40
0.0149999999999998
 50
270.0000000000008
 51
360.0000000000008
 73
     1
 72
     1
 10
7.165010658679766
 20
5.774764185713282
 11
7.165010658679766
 21
6.102764185713284
 72
     1
 10
7.165010658679766
 20
6.102764185713284
 11
7.132010658679768
 21
6.135764185713282
 72
     1
 10
7.132010658679768
 20
6.135764185713282
 11
7.132010658679765
 21
6.334764185713276
 72
     1
 10
7.132010658679765
 20
6.334764185713276
 11
7.18201065867977
 21
6.384764185713281
 72
     1
 10
7.18201065867977
 20
6.384764185713281
 11
7.072010658679764
 21
6.384764185713281
 72
     2
 10
7.072010658679764
 20
6.36976418571328
 40
0.0149999999999997
 50
90.0
 51
180.0
 73
     1
 97
        0
 75
     0
 76
     1
 52
0.0
 41
1.0
 77
     0
 78
     2
 53
45.0
 43
0.0
 44
0.0
 45
-0.2651650429449553
 46
0.2651650429449554
 79
     0
 53
45.0
 43
0.176776695
 44
0.0
 45
-0.2651650429449553
 46
0.2651650429449554
 79
     0
 98
        1
 10
0.0
 20
0.0
  0
HATCH
  5
2DE
330
1F
100
AcDbEntity
  8
0
  6
Continuous
 62
     7
370
     0
100
AcDbHatch
 10
0.0
 20
0.0
 30
0.0
210
0.0
220
0.0
230
1.0
  2
ANSI32
 70
     0
 71
     0
 91
        1
 92
        0
 93
       14
 72
     1
 10
6.807010658679763
 20
6.369764185713279
 11
6.807010658679768
 21
6.20741199627137
 72
     2
 10
6.68201065867977
 20
6.20741199627137
 40
0.125
 50
0.0
 51
36.09901625873303
 73
     0
 72
     1
 10
6.783010658679768
 20
6.133764185713281
 11
6.783010658679768
 21
6.102764185713283
 72
     1
 10
6.783010658679768
 20
6.102764185713283
 11
6.823010658679768
 21
6.102764185713283
 72
     1
 10
6.823010658679768
 20
6.102764185713283
 11
6.823010658679768
 21
5.774764185713281
 72
     2
 10
6.838010658679767
 20
5.774764185713281
 40
0.0150000000000001
 50
180.0
 51
270.0000000000008
 73
     1
 72
     1
 10
6.838010658679767
 20
5.75976418571328
 11
6.900010658679767
 21
5.759764185713281
 72
     2
 10
6.900010658679767
 20
5.77476418571328
 40
0.0149999999999998
 50
270.0000000000008
 51
360.0000000000043
 73
     1
 72
     1
 10
6.915010658679766
 20
5.774764185713281
 11
6.915010658679766
 21
6.102764185713283
 72
     1
 10
6.915010658679766
 20
6.102764185713283
 11
6.882010658679769
 21
6.13576418571328
 72
     1
 10
6.882010658679769
 20
6.13576418571328
 11
6.882010658679765
 21
6.334764185713275
 72
     1
 10
6.882010658679765
 20
6.334764185713275
 11
6.93201065867977
 21
6.384764185713279
 72
     1
 10
6.93201065867977
 20
6.384764185713279
 11
6.822010658679764
 21
6.384764185713279
 72
     2
 10
6.822010658679764
 20
6.369764185713279
 40
0.0149999999999997
 50
90.0
 51
180.0
 73
     1
 97
        0
 75
     0
 76
     1
 52
0.0
 41
1.0
 77
     0
 78
     2
 53
45.0
 43
0.0
 44
0.0
 45
-0.2651650429449553
 46
0.2651650429449554
 79
     0
 53
45.0
 43
0.176776695
 44
0.0
 45
-0.2651650429449553
 46
0.2651650429449554
 79
     0
 98
        1
 10
0.0
 20
0.0
  0
HATCH
  5
2DF
330
1F
100
AcDbEntity
  8
0
  6
Continuous
 62
     7
370
     0
100
AcDbHatch
 10
0.0
 20
0.0
 30
0.0
210
0.0
220
0.0
230
1.0
  2
ANSI32
 70
     0
 71
     0
 91
        1
 92
        0
 93
       14
 72
     1
 10
6.557010658679764
 20
6.369764185713277
 11
6.557010658679769
 21
6.207411996271368
 72
     2
 10
6.432010658679772
 20
6.207411996271368
 40
0.125
 50
0.0
 51
36.09901625873303
 73
     0
 72
     1
 10
6.533010658679769
 20
6.13376418571328
 11
6.533010658679769
 21
6.10276418571328
 72
     1
 10
6.533010658679769
 20
6.10276418571328
 11
6.573010658679769
 21
6.102764185713282
 72
     1
 10
6.573010658679769
 20
6.102764185713282
 11
6.573010658679768
 21
5.774764185713279
 72
     2
 10
6.588010658679767
 20
5.774764185713279
 40
0.0150000000000001
 50
180.0
 51
270.0000000000008
 73
     1
 72
     1
 10
6.588010658679767
 20
5.759764185713278
 11
6.650010658679767
 21
5.759764185713279
 72
     2
 10
6.650010658679767
 20
5.774764185713279
 40
0.0149999999999998
 50
270.0000000000008
 51
360.0000000000008
 73
     1
 72
     1
 10
6.665010658679766
 20
5.774764185713279
 11
6.665010658679768
 21
6.102764185713282
 72
     1
 10
6.665010658679768
 20
6.102764185713282
 11
6.63201065867977
 21
6.135764185713279
 72
     1
 10
6.63201065867977
 20
6.135764185713279
 11
6.632010658679764
 21
6.334764185713273
 72
     1
 10
6.632010658679764
 20
6.334764185713273
 11
6.68201065867977
 21
6.384764185713276
 72
     1
 10
6.68201065867977
 20
6.384764185713276
 11
6.572010658679765
 21
6.384764185713278
 72
     2
 10
6.572010658679765
 20
6.369764185713277
 40
0.0149999999999997
 50
90.0
 51
180.0
 73
     1
 97
        0
 75
     0
 76
     1
 52
0.0
 41
1.0
 77
     0
 78
     2
 53
45.0
 43
0.0
 44
0.0
 45
-0.2651650429449553
 46
0.2651650429449554
 79
     0
 53
45.0
 43
0.176776695
 44
0.0
 45
-0.2651650429449553
 46
0.2651650429449554
 79
     0
 98
        1
 10
0.0
 20
0.0
  0
HATCH
  5
2E0
330
1F
100
AcDbEntity
  8
0
  6
Continuous
 62
     7
370
     0
100
AcDbHatch
 10
0.0
 20
0.0
 30
0.0
210
0.0
220
0.0
230
1.0
  2
ANSI32
 70
     0
 71
     0
 91
        1
 92
        0
 93
       14
 72
     1
 10
6.307010658679763
 20
6.369764185713276
 11
6.307010658679768
 21
6.207411996271367
 72
     2
 10
6.182010658679771
 20
6.207411996271367
 40
0.125
 50
0.0
 51
36.09901625873336
 73
     0
 72
     1
 10
6.283010658679768
 20
6.133764185713278
 11
6.283010658679769
 21
6.102764185713279
 72
     1
 10
6.283010658679769
 20
6.102764185713279
 11
6.323010658679769
 21
6.102764185713279
 72
     1
 10
6.323010658679769
 20
6.102764185713279
 11
6.323010658679768
 21
5.774764185713276
 72
     2
 10
6.338010658679767
 20
5.774764185713278
 40
0.0150000000000001
 50
180.0000000000076
 51
270.0000000000008
 73
     1
 72
     1
 10
6.338010658679767
 20
5.759764185713276
 11
6.400010658679768
 21
5.759764185713276
 72
     2
 10
6.400010658679768
 20
5.774764185713276
 40
0.0149999999999998
 50
270.0000000000008
 51
360.0000000000008
 73
     1
 72
     1
 10
6.415010658679767
 20
5.774764185713276
 11
6.415010658679768
 21
6.102764185713279
 72
     1
 10
6.415010658679768
 20
6.102764185713279
 11
6.38201065867977
 21
6.135764185713277
 72
     1
 10
6.38201065867977
 20
6.135764185713277
 11
6.382010658679765
 21
6.334764185713271
 72
     1
 10
6.382010658679765
 20
6.334764185713271
 11
6.43201065867977
 21
6.384764185713276
 72
     1
 10
6.43201065867977
 20
6.384764185713276
 11
6.322010658679765
 21
6.384764185713276
 72
     2
 10
6.322010658679765
 20
6.369764185713276
 40
0.0149999999999997
 50
90.0
 51
180.0
 73
     1
 97
        0
 75
     0
 76
     1
 52
0.0
 41
1.0
 77
     0
 78
     2
 53
45.0
 43
0.0
 44
0.0
 45
-0.2651650429449553
 46
0.2651650429449554
 79
     0
 53
45.0
 43
0.176776695
 44
0.0
 45
-0.2651650429449553
 46
0.2651650429449554
 79
     0
 98
        1
 10
0.0
 20
0.0
  0
HATCH
  5
2E1
330
1F
100
AcDbEntity
  8
0
  6
Continuous
 62
     7
370
     0
100
AcDbHatch
 10
0.0
 20
0.0
 30
0.0
210
0.0
220
0.0
230
1.0
  2
ANSI32
 70
     0
 71
     0
 91
        1
 92
        0
 93
       14
 72
     1
 10
6.057010658679764
 20
6.369764185713274
 11
6.057010658679769
 21
6.207411996271365
 72
     2
 10
5.932010658679771
 20
6.207411996271365
 40
0.125
 50
0.0
 51
36.09901625873336
 73
     0
 72
     1
 10
6.033010658679768
 20
6.133764185713275
 11
6.033010658679768
 21
6.102764185713277
 72
     1
 10
6.033010658679768
 20
6.102764185713277
 11
6.073010658679769
 21
6.102764185713277
 72
     1
 10
6.073010658679769
 20
6.102764185713277
 11
6.073010658679767
 21
5.774764185713274
 72
     2
 10
6.088010658679768
 20
5.774764185713275
 40
0.0150000000000001
 50
180.0000000000042
 51
270.0000000000008
 73
     1
 72
     1
 10
6.088010658679768
 20
5.759764185713275
 11
6.150010658679767
 21
5.759764185713275
 72
     2
 10
6.150010658679767
 20
5.774764185713274
 40
0.0149999999999998
 50
270.0000000000008
 51
360.0000000000008
 73
     1
 72
     1
 10
6.165010658679766
 20
5.774764185713274
 11
6.165010658679767
 21
6.102764185713277
 72
     1
 10
6.165010658679767
 20
6.102764185713277
 11
6.132010658679769
 21
6.135764185713274
 72
     1
 10
6.132010658679769
 20
6.135764185713274
 11
6.132010658679764
 21
6.334764185713269
 72
     1
 10
6.132010658679764
 20
6.334764185713269
 11
6.182010658679771
 21
6.384764185713274
 72
     1
 10
6.182010658679771
 20
6.384764185713274
 11
6.072010658679764
 21
6.384764185713275
 72
     2
 10
6.072010658679765
 20
6.369764185713274
 40
0.0149999999999997
 50
90.0000000000034
 51
180.0
 73
     1
 97
        0
 75
     0
 76
     1
 52
0.0
 41
1.0
 77
     0
 78
     2
 53
45.0
 43
0.0
 44
0.0
 45
-0.2651650429449553
 46
0.2651650429449554
 79
     0
 53
45.0
 43
0.176776695
 44
0.0
 45
-0.2651650429449553
 46
0.2651650429449554
 79
     0
 98
        1
 10
0.0
 20
0.0
  0
HATCH
  5
2E2
330
1F
100
AcDbEntity
  8
0
  6
Continuous
 62
     7
370
     0
100
AcDbHatch
 10
0.0
 20
0.0
 30
0.0
210
0.0
220
0.0
230
1.0
  2
ANSI32
 70
     0
 71
     0
 91
        1
 92
        0
 93
       14
 72
     1
 10
5.807010658679764
 20
6.369764185713271
 11
5.807010658679769
 21
6.207411996271363
 72
     2
 10
5.682010658679771
 20
6.207411996271363
 40
0.125
 50
0.0
 51
36.09901625873303
 73
     0
 72
     1
 10
5.783010658679768
 20
6.133764185713274
 11
5.783010658679768
 21
6.102764185713276
 72
     1
 10
5.783010658679768
 20
6.102764185713276
 11
5.823010658679769
 21
6.102764185713276
 72
     1
 10
5.823010658679769
 20
6.102764185713276
 11
5.823010658679768
 21
5.774764185713273
 72
     2
 10
5.838010658679768
 20
5.774764185713273
 40
0.0150000000000001
 50
180.0
 51
270.0000000000008
 73
     1
 72
     1
 10
5.838010658679768
 20
5.759764185713273
 11
5.900010658679767
 21
5.759764185713274
 72
     2
 10
5.900010658679767
 20
5.774764185713273
 40
0.0149999999999998
 50
270.0000000000008
 51
360.0000000000008
 73
     1
 72
     1
 10
5.915010658679766
 20
5.774764185713273
 11
5.915010658679767
 21
6.102764185713276
 72
     1
 10
5.915010658679767
 20
6.102764185713276
 11
5.882010658679769
 21
6.135764185713273
 72
     1
 10
5.882010658679769
 20
6.135764185713273
 11
5.882010658679765
 21
6.334764185713268
 72
     1
 10
5.882010658679765
 20
6.334764185713268
 11
5.932010658679771
 21
6.384764185713273
 72
     1
 10
5.932010658679771
 20
6.384764185713273
 11
5.822010658679764
 21
6.384764185713273
 72
     2
 10
5.822010658679764
 20
6.369764185713271
 40
0.0149999999999997
 50
90.0
 51
180.0
 73
     1
 97
        0
 75
     0
 76
     1
 52
0.0
 41
1.0
 77
     0
 78
     2
 53
45.0
 43
0.0
 44
0.0
 45
-0.2651650429449553
 46
0.2651650429449554
 79
     0
 53
45.0
 43
0.176776695
 44
0.0
 45
-0.2651650429449553
 46
0.2651650429449554
 79
     0
 98
        1
 10
0.0
 20
0.0
  0
HATCH
  5
2E3
330
1F
100
AcDbEntity
  8
0
  6
Continuous
 62
     7
370
     0
100
AcDbHatch
 10
0.0
 20
0.0
 30
0.0
210
0.0
220
0.0
230
1.0
  2
ANSI32
 70
     0
 71
     0
 91
        1
 92
        0
 93
       14
 72
     1
 10
5.557010658679764
 20
6.369764185713271
 11
5.557010658679768
 21
6.20741199627136
 72
     2
 10
5.432010658679771
 20
6.20741199627136
 40
0.125
 50
0.0
 51
36.09901625873295
 73
     0
 72
     1
 10
5.533010658679768
 20
6.133764185713273
 11
5.533010658679769
 21
6.102764185713274
 72
     1
 10
5.533010658679769
 20
6.102764185713274
 11
5.573010658679769
 21
6.102764185713274
 72
     1
 10
5.573010658679769
 20
6.102764185713274
 11
5.573010658679768
 21
5.774764185713271
 72
     2
 10
5.588010658679767
 20
5.774764185713271
 40
0.0150000000000001
 50
180.0
 51
270.0000000000043
 73
     1
 72
     1
 10
5.588010658679768
 20
5.759764185713271
 11
5.650010658679767
 21
5.759764185713271
 72
     2
 10
5.650010658679767
 20
5.774764185713271
 40
0.0149999999999998
 50
270.0000000000008
 51
360.0000000000008
 73
     1
 72
     1
 10
5.665010658679766
 20
5.774764185713271
 11
5.665010658679766
 21
6.102764185713274
 72
     1
 10
5.665010658679766
 20
6.102764185713274
 11
5.63201065867977
 21
6.135764185713271
 72
     1
 10
5.63201065867977
 20
6.135764185713271
 11
5.632010658679765
 21
6.334764185713266
 72
     1
 10
5.632010658679765
 20
6.334764185713266
 11
5.68201065867977
 21
6.38476418571327
 72
     1
 10
5.68201065867977
 20
6.38476418571327
 11
5.572010658679764
 21
6.38476418571327
 72
     2
 10
5.572010658679764
 20
6.369764185713271
 40
0.0149999999999997
 50
90.0
 51
180.0
 73
     1
 97
        0
 75
     0
 76
     1
 52
0.0
 41
1.0
 77
     0
 78
     2
 53
45.0
 43
0.0
 44
0.0
 45
-0.2651650429449553
 46
0.2651650429449554
 79
     0
 53
45.0
 43
0.176776695
 44
0.0
 45
-0.2651650429449553
 46
0.2651650429449554
 79
     0
 98
        1
 10
0.0
 20
0.0
  0
HATCH
  5
2E4
330
1F
100
AcDbEntity
  8
0
  6
Continuous
 62
     7
370
     0
100
AcDbHatch
 10
0.0
 20
0.0
 30
0.0
210
0.0
220
0.0
230
1.0
  2
ANSI32
 70
     0
 71
     0
 91
        1
 92
        0
 93
       14
 72
     1
 10
5.307010658679764
 20
6.369764185713269
 11
5.307010658679768
 21
6.207411996271359
 72
     2
 10
5.18201065867977
 20
6.207411996271359
 40
0.125
 50
0.0
 51
36.09901625873247
 73
     0
 72
     1
 10
5.283010658679768
 20
6.133764185713272
 11
5.283010658679768
 21
6.102764185713272
 72
     1
 10
5.283010658679768
 20
6.102764185713272
 11
5.323010658679768
 21
6.102764185713273
 72
     1
 10
5.323010658679768
 20
6.102764185713273
 11
5.323010658679768
 21
5.77476418571327
 72
     2
 10
5.338010658679767
 20
5.77476418571327
 40
0.0150000000000001
 50
180.0
 51
270.0000000000008
 73
     1
 72
     1
 10
5.338010658679767
 20
5.759764185713269
 11
5.400010658679767
 21
5.75976418571327
 72
     2
 10
5.400010658679767
 20
5.77476418571327
 40
0.0149999999999998
 50
270.0000000000008
 51
360.0000000000008
 73
     1
 72
     1
 10
5.415010658679766
 20
5.77476418571327
 11
5.415010658679766
 21
6.102764185713273
 72
     1
 10
5.415010658679766
 20
6.102764185713273
 11
5.382010658679769
 21
6.13576418571327
 72
     1
 10
5.382010658679769
 20
6.13576418571327
 11
5.382010658679765
 21
6.334764185713264
 72
     1
 10
5.382010658679765
 20
6.334764185713264
 11
5.43201065867977
 21
6.384764185713268
 72
     1
 10
5.43201065867977
 20
6.384764185713268
 11
5.322010658679764
 21
6.384764185713269
 72
     2
 10
5.322010658679764
 20
6.369764185713269
 40
0.0149999999999997
 50
90.0
 51
180.0
 73
     1
 97
        0
 75
     0
 76
     1
 52
0.0
 41
1.0
 77
     0
 78
     2
 53
45.0
 43
0.0
 44
0.0
 45
-0.2651650429449553
 46
0.2651650429449554
 79
     0
 53
45.0
 43
0.176776695
 44
0.0
 45
-0.2651650429449553
 46
0.2651650429449554
 79
     0
 98
        1
 10
0.0
 20
0.0
  0
HATCH
  5
2E5
330
1F
100
AcDbEntity
  8
0
  6
Continuous
 62
     7
370
     0
100
AcDbHatch
 10
0.0
 20
0.0
 30
0.0
210
0.0
220
0.0
230
1.0
  2
ANSI32
 70
     0
 71
     0
 91
        1
 92
        0
 93
       14
 72
     1
 10
5.057010658679765
 20
6.369764185713267
 11
5.057010658679768
 21
6.207411996271357
 72
     2
 10
4.932010658679771
 20
6.207411996271357
 40
0.125
 50
0.0
 51
36.09901625873303
 73
     0
 72
     1
 10
5.033010658679768
 20
6.133764185713269
 11
5.033010658679768
 21
6.10276418571327
 72
     1
 10
5.033010658679768
 20
6.10276418571327
 11
5.073010658679768
 21
6.10276418571327
 72
     1
 10
5.073010658679768
 20
6.10276418571327
 11
5.073010658679768
 21
5.774764185713268
 72
     2
 10
5.088010658679767
 20
5.774764185713268
 40
0.0150000000000001
 50
180.0
 51
270.0000000000008
 73
     1
 72
     1
 10
5.088010658679767
 20
5.759764185713267
 11
5.150010658679768
 21
5.759764185713268
 72
     2
 10
5.150010658679768
 20
5.774764185713268
 40
0.0149999999999998
 50
270.0000000000008
 51
360.0000000000008
 73
     1
 72
     1
 10
5.165010658679767
 20
5.774764185713268
 11
5.165010658679767
 21
6.10276418571327
 72
     1
 10
5.165010658679767
 20
6.10276418571327
 11
5.132010658679769
 21
6.135764185713268
 72
     1
 10
5.132010658679769
 20
6.135764185713268
 11
5.132010658679765
 21
6.334764185713261
 72
     1
 10
5.132010658679765
 20
6.334764185713261
 11
5.18201065867977
 21
6.384764185713267
 72
     1
 10
5.18201065867977
 20
6.384764185713267
 11
5.072010658679765
 21
6.384764185713267
 72
     2
 10
5.072010658679765
 20
6.369764185713267
 40
0.0149999999999997
 50
90.0
 51
180.0
 73
     1
 97
        0
 75
     0
 76
     1
 52
0.0
 41
1.0
 77
     0
 78
     2
 53
45.0
 43
0.0
 44
0.0
 45
-0.2651650429449553
 46
0.2651650429449554
 79
     0
 53
45.0
 43
0.176776695
 44
0.0
 45
-0.2651650429449553
 46
0.2651650429449554
 79
     0
 98
        1
 10
0.0
 20
0.0
  0
HATCH
  5
2E6
330
1F
100
AcDbEntity
  8
0
  6
Continuous
 62
     7
370
     0
100
AcDbHatch
 10
0.0
 20
0.0
 30
0.0
210
0.0
220
0.0
230
1.0
  2
ANSI32
 70
     0
 71
     0
 91
        1
 92
        0
 93
       14
 72
     1
 10
4.807010658679765
 20
6.369764185713265
 11
4.807010658679769
 21
6.207411996271355
 72
     2
 10
4.682010658679772
 20
6.207411996271355
 40
0.125
 50
0.0
 51
36.0990162587327
 73
     0
 72
     1
 10
4.783010658679769
 20
6.133764185713267
 11
4.783010658679769
 21
6.102764185713268
 72
     1
 10
4.783010658679769
 20
6.102764185713268
 11
4.823010658679769
 21
6.102764185713268
 72
     1
 10
4.823010658679769
 20
6.102764185713268
 11
4.823010658679769
 21
5.774764185713265
 72
     2
 10
4.838010658679768
 20
5.774764185713265
 40
0.0150000000000001
 50
180.0
 51
270.0000000000008
 73
     1
 72
     1
 10
4.838010658679768
 20
5.759764185713266
 11
4.900010658679768
 21
5.759764185713266
 72
     2
 10
4.900010658679768
 20
5.774764185713265
 40
0.0149999999999998
 50
270.0000000000008
 51
360.0000000000008
 73
     1
 72
     1
 10
4.915010658679767
 20
5.774764185713265
 11
4.915010658679767
 21
6.102764185713268
 72
     1
 10
4.915010658679767
 20
6.102764185713268
 11
4.88201065867977
 21
6.135764185713265
 72
     1
 10
4.88201065867977
 20
6.135764185713265
 11
4.882010658679765
 21
6.33476418571326
 72
     1
 10
4.882010658679765
 20
6.33476418571326
 11
4.932010658679771
 21
6.384764185713265
 72
     1
 10
4.932010658679771
 20
6.384764185713265
 11
4.822010658679765
 21
6.384764185713265
 72
     2
 10
4.822010658679765
 20
6.369764185713265
 40
0.0149999999999997
 50
90.0
 51
180.0
 73
     1
 97
        0
 75
     0
 76
     1
 52
0.0
 41
1.0
 77
     0
 78
     2
 53
45.0
 43
0.0
 44
0.0
 45
-0.2651650429449553
 46
0.2651650429449554
 79
     0
 53
45.0
 43
0.176776695
 44
0.0
 45
-0.2651650429449553
 46
0.2651650429449554
 79
     0
 98
        1
 10
0.0
 20
0.0
  0
HATCH
  5
2E7
330
1F
100
AcDbEntity
  8
0
  6
Continuous
 62
     7
370
     0
100
AcDbHatch
 10
0.0
 20
0.0
 30
0.0
210
0.0
220
0.0
230
1.0
  2
ANSI32
 70
     0
 71
     0
 91
        1
 92
        0
 93
       14
 72
     1
 10
4.557010658679764
 20
6.369764185713263
 11
4.557010658679769
 21
6.207411996271354
 72
     2
 10
4.432010658679771
 20
6.207411996271354
 40
0.125
 50
0.0
 51
36.09901625873336
 73
     0
 72
     1
 10
4.533010658679768
 20
6.133764185713265
 11
4.533010658679769
 21
6.102764185713266
 72
     1
 10
4.533010658679769
 20
6.102764185713266
 11
4.573010658679769
 21
6.102764185713266
 72
     1
 10
4.573010658679769
 20
6.102764185713266
 11
4.573010658679768
 21
5.774764185713265
 72
     2
 10
4.588010658679768
 20
5.774764185713265
 40
0.0150000000000001
 50
180.0
 51
270.0000000000008
 73
     1
 72
     1
 10
4.588010658679768
 20
5.759764185713264
 11
4.650010658679767
 21
5.759764185713265
 72
     2
 10
4.650010658679767
 20
5.774764185713264
 40
0.0149999999999998
 50
270.0000000000008
 51
360.0000000000008
 73
     1
 72
     1
 10
4.665010658679767
 20
5.774764185713264
 11
4.665010658679768
 21
6.102764185713268
 72
     1
 10
4.665010658679768
 20
6.102764185713268
 11
4.63201065867977
 21
6.135764185713264
 72
     1
 10
4.63201065867977
 20
6.135764185713264
 11
4.632010658679764
 21
6.334764185713259
 72
     1
 10
4.632010658679764
 20
6.334764185713259
 11
4.682010658679771
 21
6.384764185713263
 72
     1
 10
4.682010658679771
 20
6.384764185713263
 11
4.572010658679765
 21
6.384764185713264
 72
     2
 10
4.572010658679765
 20
6.369764185713263
 40
0.0149999999999997
 50
90.0
 51
180.0
 73
     1
 97
        0
 75
     0
 76
     1
 52
0.0
 41
1.0
 77
     0
 78
     2
 53
45.0
 43
0.0
 44
0.0
 45
-0.2651650429449553
 46
0.2651650429449554
 79
     0
 53
45.0
 43
0.176776695
 44
0.0
 45
-0.2651650429449553
 46
0.2651650429449554
 79
     0
 98
        1
 10
0.0
 20
0.0
  0
HATCH
  5
2E8
330
1F
100
AcDbEntity
  8
0
  6
Continuous
 62
     7
370
     0
100
AcDbHatch
 10
0.0
 20
0.0
 30
0.0
210
0.0
220
0.0
230
1.0
  2
ANSI32
 70
     0
 71
     0
 91
        1
 92
        0
 93
       14
 72
     1
 10
4.307010658679764
 20
6.369764185713262
 11
4.307010658679769
 21
6.207411996271351
 72
     2
 10
4.182010658679772
 20
6.207411996271351
 40
0.125
 50
0.0
 51
36.0990162587327
 73
     0
 72
     1
 10
4.283010658679769
 20
6.133764185713264
 11
4.283010658679769
 21
6.102764185713265
 72
     1
 10
4.283010658679769
 20
6.102764185713265
 11
4.323010658679769
 21
6.102764185713265
 72
     1
 10
4.323010658679769
 20
6.102764185713265
 11
4.323010658679768
 21
5.774764185713263
 72
     2
 10
4.338010658679768
 20
5.774764185713263
 40
0.0150000000000001
 50
180.0
 51
270.0000000000008
 73
     1
 72
     1
 10
4.338010658679768
 20
5.759764185713261
 11
4.400010658679768
 21
5.759764185713262
 72
     2
 10
4.400010658679768
 20
5.774764185713263
 40
0.0149999999999998
 50
270.0000000000008
 51
360.0000000000008
 73
     1
 72
     1
 10
4.415010658679767
 20
5.774764185713263
 11
4.415010658679768
 21
6.102764185713265
 72
     1
 10
4.415010658679768
 20
6.102764185713265
 11
4.38201065867977
 21
6.135764185713263
 72
     1
 10
4.38201065867977
 20
6.135764185713263
 11
4.382010658679765
 21
6.334764185713256
 72
     1
 10
4.382010658679765
 20
6.334764185713256
 11
4.432010658679771
 21
6.384764185713261
 72
     1
 10
4.432010658679771
 20
6.384764185713261
 11
4.322010658679765
 21
6.384764185713261
 72
     2
 10
4.322010658679765
 20
6.369764185713262
 40
0.0149999999999997
 50
90.0
 51
180.0
 73
     1
 97
        0
 75
     0
 76
     1
 52
0.0
 41
1.0
 77
     0
 78
     2
 53
45.0
 43
0.0
 44
0.0
 45
-0.2651650429449553
 46
0.2651650429449554
 79
     0
 53
45.0
 43
0.176776695
 44
0.0
 45
-0.2651650429449553
 46
0.2651650429449554
 79
     0
 98
        1
 10
0.0
 20
0.0
  0
HATCH
  5
2E9
330
1F
100
AcDbEntity
  8
0
  6
Continuous
 62
     7
370
     0
100
AcDbHatch
 10
0.0
 20
0.0
 30
0.0
210
0.0
220
0.0
230
1.0
  2
ANSI32
 70
     0
 71
     0
 91
        1
 92
        0
 93
       14
 72
     1
 10
4.057010658679764
 20
6.36976418571326
 11
4.057010658679769
 21
6.20741199627135
 72
     2
 10
3.932010658679771
 20
6.20741199627135
 40
0.125
 50
0.0
 51
36.09901625873336
 73
     0
 72
     1
 10
4.033010658679768
 20
6.133764185713261
 11
4.033010658679768
 21
6.102764185713263
 72
     1
 10
4.033010658679768
 20
6.102764185713263
 11
4.073010658679769
 21
6.102764185713263
 72
     1
 10
4.073010658679769
 20
6.102764185713263
 11
4.073010658679768
 21
5.774764185713261
 72
     2
 10
4.088010658679768
 20
5.774764185713261
 40
0.0150000000000001
 50
180.0
 51
270.0000000000008
 73
     1
 72
     1
 10
4.088010658679768
 20
5.75976418571326
 11
4.150010658679767
 21
5.75976418571326
 72
     2
 10
4.150010658679767
 20
5.77476418571326
 40
0.0149999999999998
 50
270.0000000000008
 51
360.0000000000008
 73
     1
 72
     1
 10
4.165010658679766
 20
5.77476418571326
 11
4.165010658679767
 21
6.102764185713263
 72
     1
 10
4.165010658679767
 20
6.102764185713263
 11
4.132010658679769
 21
6.13576418571326
 72
     1
 10
4.132010658679769
 20
6.13576418571326
 11
4.132010658679765
 21
6.334764185713255
 72
     1
 10
4.132010658679765
 20
6.334764185713255
 11
4.182010658679771
 21
6.38476418571326
 72
     1
 10
4.182010658679771
 20
6.38476418571326
 11
4.072010658679764
 21
6.38476418571326
 72
     2
 10
4.072010658679764
 20
6.36976418571326
 40
0.0149999999999997
 50
90.0
 51
180.0
 73
     1
 97
        0
 75
     0
 76
     1
 52
0.0
 41
1.0
 77
     0
 78
     2
 53
45.0
 43
0.0
 44
0.0
 45
-0.2651650429449553
 46
0.2651650429449554
 79
     0
 53
45.0
 43
0.176776695
 44
0.0
 45
-0.2651650429449553
 46
0.2651650429449554
 79
     0
 98
        1
 10
0.0
 20
0.0
  0
HATCH
  5
2EA
330
1F
100
AcDbEntity
  8
0
  6
Continuous
 62
     7
370
     0
100
AcDbHatch
 10
0.0
 20
0.0
 30
0.0
210
0.0
220
0.0
230
1.0
  2
ANSI32
 70
     0
 71
     0
 91
        1
 92
        0
 93
       14
 72
     1
 10
3.807010658679765
 20
6.369764185713257
 11
3.807010658679769
 21
6.207411996271349
 72
     2
 10
3.682010658679771
 20
6.207411996271349
 40
0.125
 50
0.0
 51
36.09901625873291
 73
     0
 72
     1
 10
3.783010658679769
 20
6.13376418571326
 11
3.783010658679769
 21
6.102764185713261
 72
     1
 10
3.783010658679769
 20
6.102764185713261
 11
3.823010658679769
 21
6.102764185713261
 72
     1
 10
3.823010658679769
 20
6.102764185713261
 11
3.823010658679768
 21
5.774764185713259
 72
     2
 10
3.838010658679768
 20
5.774764185713259
 40
0.0150000000000001
 50
180.0
 51
270.0000000000008
 73
     1
 72
     1
 10
3.838010658679768
 20
5.759764185713259
 11
3.900010658679767
 21
5.75976418571326
 72
     2
 10
3.900010658679767
 20
5.774764185713259
 40
0.0149999999999998
 50
270.0000000000008
 51
360.0000000000008
 73
     1
 72
     1
 10
3.915010658679767
 20
5.774764185713259
 11
3.915010658679767
 21
6.102764185713261
 72
     1
 10
3.915010658679767
 20
6.102764185713261
 11
3.882010658679769
 21
6.135764185713259
 72
     1
 10
3.882010658679769
 20
6.135764185713259
 11
3.882010658679765
 21
6.334764185713254
 72
     1
 10
3.882010658679765
 20
6.334764185713254
 11
3.932010658679771
 21
6.384764185713257
 72
     1
 10
3.932010658679771
 20
6.384764185713257
 11
3.822010658679764
 21
6.384764185713259
 72
     2
 10
3.822010658679764
 20
6.369764185713259
 40
0.0149999999999997
 50
90.0
 51
180.0000000000076
 73
     1
 97
        0
 75
     0
 76
     1
 52
0.0
 41
1.0
 77
     0
 78
     2
 53
45.0
 43
0.0
 44
0.0
 45
-0.2651650429449553
 46
0.2651650429449554
 79
     0
 53
45.0
 43
0.176776695
 44
0.0
 45
-0.2651650429449553
 46
0.2651650429449554
 79
     0
 98
        1
 10
0.0
 20
0.0
  0
HATCH
  5
2EB
330
1F
100
AcDbEntity
  8
0
  6
Continuous
 62
     7
370
     0
100
AcDbHatch
 10
0.0
 20
0.0
 30
0.0
210
0.0
220
0.0
230
1.0
  2
ANSI32
 70
     0
 71
     0
 91
        1
 92
        0
 93
       14
 72
     1
 10
3.557010658679765
 20
6.369764185713255
 11
3.557010658679769
 21
6.207411996271346
 72
     2
 10
3.432010658679772
 20
6.207411996271346
 40
0.125
 50
0.0
 51
36.0990162587327
 73
     0
 72
     1
 10
3.533010658679769
 20
6.133764185713258
 11
3.533010658679769
 21
6.10276418571326
 72
     1
 10
3.533010658679769
 20
6.10276418571326
 11
3.573010658679769
 21
6.10276418571326
 72
     1
 10
3.573010658679769
 20
6.10276418571326
 11
3.573010658679768
 21
5.774764185713257
 72
     2
 10
3.588010658679768
 20
5.774764185713257
 40
0.0150000000000001
 50
180.0
 51
270.0000000000008
 73
     1
 72
     1
 10
3.588010658679768
 20
5.759764185713256
 11
3.650010658679767
 21
5.759764185713257
 72
     2
 10
3.650010658679767
 20
5.774764185713257
 40
0.0149999999999998
 50
270.0000000000008
 51
360.0000000000008
 73
     1
 72
     1
 10
3.665010658679767
 20
5.774764185713257
 11
3.665010658679768
 21
6.10276418571326
 72
     1
 10
3.665010658679768
 20
6.10276418571326
 11
3.632010658679769
 21
6.135764185713256
 72
     1
 10
3.632010658679769
 20
6.135764185713256
 11
3.632010658679766
 21
6.334764185713251
 72
     1
 10
3.632010658679766
 20
6.334764185713251
 11
3.682010658679771
 21
6.384764185713256
 72
     1
 10
3.682010658679771
 20
6.384764185713256
 11
3.572010658679765
 21
6.384764185713256
 72
     2
 10
3.572010658679765
 20
6.369764185713256
 40
0.0149999999999997
 50
90.0
 51
180.0000000000042
 73
     1
 97
        0
 75
     0
 76
     1
 52
0.0
 41
1.0
 77
     0
 78
     2
 53
45.0
 43
0.0
 44
0.0
 45
-0.2651650429449553
 46
0.2651650429449554
 79
     0
 53
45.0
 43
0.176776695
 44
0.0
 45
-0.2651650429449553
 46
0.2651650429449554
 79
     0
 98
        1
 10
0.0
 20
0.0
  0
HATCH
  5
2EC
330
1F
100
AcDbEntity
  8
0
  6
Continuous
 62
     7
370
     0
100
AcDbHatch
 10
0.0
 20
0.0
 30
0.0
210
0.0
220
0.0
230
1.0
  2
ANSI32
 70
     0
 71
     0
 91
        1
 92
        0
 93
       14
 72
     1
 10
3.307010658679764
 20
6.369764185713255
 11
3.307010658679769
 21
6.207411996271345
 72
     2
 10
3.182010658679771
 20
6.207411996271345
 40
0.125
 50
0.0
 51
36.09901625873324
 73
     0
 72
     1
 10
3.283010658679769
 20
6.133764185713256
 11
3.283010658679769
 21
6.102764185713258
 72
     1
 10
3.283010658679769
 20
6.102764185713258
 11
3.323010658679769
 21
6.102764185713258
 72
     1
 10
3.323010658679769
 20
6.102764185713258
 11
3.323010658679768
 21
5.774764185713255
 72
     2
 10
3.338010658679768
 20
5.774764185713256
 40
0.0150000000000001
 50
180.0000000000042
 51
270.0000000000008
 73
     1
 72
     1
 10
3.338010658679768
 20
5.759764185713255
 11
3.400010658679767
 21
5.759764185713256
 72
     2
 10
3.400010658679767
 20
5.774764185713255
 40
0.0149999999999998
 50
270.0000000000008
 51
360.0000000000008
 73
     1
 72
     1
 10
3.415010658679767
 20
5.774764185713255
 11
3.415010658679767
 21
6.102764185713258
 72
     1
 10
3.415010658679767
 20
6.102764185713258
 11
3.382010658679769
 21
6.135764185713255
 72
     1
 10
3.382010658679769
 20
6.135764185713255
 11
3.382010658679765
 21
6.33476418571325
 72
     1
 10
3.382010658679765
 20
6.33476418571325
 11
3.432010658679771
 21
6.384764185713254
 72
     1
 10
3.432010658679771
 20
6.384764185713254
 11
3.322010658679764
 21
6.384764185713254
 72
     2
 10
3.322010658679764
 20
6.369764185713255
 40
0.0149999999999997
 50
90.0
 51
180.0
 73
     1
 97
        0
 75
     0
 76
     1
 52
0.0
 41
1.0
 77
     0
 78
     2
 53
45.0
 43
0.0
 44
0.0
 45
-0.2651650429449553
 46
0.2651650429449554
 79
     0
 53
45.0
 43
0.176776695
 44
0.0
 45
-0.2651650429449553
 46
0.2651650429449554
 79
     0
 98
        1
 10
0.0
 20
0.0
  0
HATCH
  5
2ED
330
1F
100
AcDbEntity
  8
0
  6
Continuous
 62
     7
370
     0
100
AcDbHatch
 10
0.0
 20
0.0
 30
0.0
210
0.0
220
0.0
230
1.0
  2
ANSI32
 70
     0
 71
     0
 91
        1
 92
        0
 93
       14
 72
     1
 10
3.057010658679764
 20
6.369764185713252
 11
3.057010658679769
 21
6.207411996271343
 72
     2
 10
2.932010658679771
 20
6.207411996271343
 40
0.125
 50
0.0
 51
36.09901625873291
 73
     0
 72
     1
 10
3.033010658679768
 20
6.133764185713255
 11
3.033010658679769
 21
6.102764185713255
 72
     1
 10
3.033010658679769
 20
6.102764185713255
 11
3.073010658679769
 21
6.102764185713256
 72
     1
 10
3.073010658679769
 20
6.102764185713256
 11
3.073010658679768
 21
5.774764185713254
 72
     2
 10
3.088010658679768
 20
5.774764185713254
 40
0.0150000000000001
 50
180.0
 51
270.0000000000008
 73
     1
 72
     1
 10
3.088010658679768
 20
5.759764185713252
 11
3.150010658679767
 21
5.759764185713254
 72
     2
 10
3.150010658679767
 20
5.774764185713254
 40
0.0149999999999998
 50
270.0000000000008
 51
360.0000000000008
 73
     1
 72
     1
 10
3.165010658679767
 20
5.774764185713254
 11
3.165010658679767
 21
6.102764185713256
 72
     1
 10
3.165010658679767
 20
6.102764185713256
 11
3.132010658679769
 21
6.135764185713254
 72
     1
 10
3.132010658679769
 20
6.135764185713254
 11
3.132010658679765
 21
6.334764185713247
 72
     1
 10
3.132010658679765
 20
6.334764185713247
 11
3.182010658679771
 21
6.384764185713252
 72
     1
 10
3.182010658679771
 20
6.384764185713252
 11
3.072010658679764
 21
6.384764185713252
 72
     2
 10
3.072010658679764
 20
6.369764185713252
 40
0.0149999999999997
 50
90.0
 51
180.0
 73
     1
 97
        0
 75
     0
 76
     1
 52
0.0
 41
1.0
 77
     0
 78
     2
 53
45.0
 43
0.0
 44
0.0
 45
-0.2651650429449553
 46
0.2651650429449554
 79
     0
 53
45.0
 43
0.176776695
 44
0.0
 45
-0.2651650429449553
 46
0.2651650429449554
 79
     0
 98
        1
 10
0.0
 20
0.0
  0
INSERT
  5
2F3
330
1F
100
AcDbEntity
  8
FORMAT
100
AcDbBlockReference
  2
SW_NOTE_0
 10
4.0111641967
 20
3.1304915772
 30
0.0
  0
ENDSEC
  0
SECTION
  2
OBJECTS
  0
DICTIONARY
  5
C
330
0
100
AcDbDictionary
281
     1
  3
ACAD_GROUP
350
D
  3
ACAD_LAYOUT
350
1A
  3
ACAD_MLINESTYLE
350
17
  3
ACAD_PLOTSETTINGS
350
19
  3
ACAD_PLOTSTYLENAME
350
E
  0
DICTIONARY
  5
D
102
{ACAD_REACTORS
330
C
102
}
330
C
100
AcDbDictionary
281
     1
  0
DICTIONARY
  5
1A
102
{ACAD_REACTORS
330
C
102
}
330
C
100
AcDbDictionary
281
     1
  3
Layout1
350
1E
  3
Layout2
350
26
  3
Model
350
22
  0
DICTIONARY
  5
17
102
{ACAD_REACTORS
330
C
102
}
330
C
100
AcDbDictionary
281
     1
  3
Standard
350
18
  0
DICTIONARY
  5
19
102
{ACAD_REACTORS
330
C
102
}
330
C
100
AcDbDictionary
281
     1
  0
ACDBDICTIONARYWDFLT
  5
E
102
{ACAD_REACTORS
330
C
102
}
330
C
100
AcDbDictionary
281
     1
  3
Normal
350
F
100
AcDbDictionaryWithDefault
340
F
  0
LAYOUT
  5
1E
102
{ACAD_REACTORS
330
1A
102
}
330
1A
100
AcDbPlotSettings
  1

  2
none_device
  4

  6

 40
0.0
 41
0.0
 42
0.0
 43
0.0
 44
0.0
 45
0.0
 46
0.0
 47
0.0
 48
0.0
 49
0.0
140
0.0
141
0.0
142
1.0
143
1.0
 70
   688
 72
     0
 73
     0
 74
     5
  7

 75
    16
147
1.0
148
0.0
149
0.0
100
AcDbLayout
  1
Layout1
 70
     1
 71
     1
 10
0.0
 20
0.0
 11
12.0
 21
9.0
 12
0.0
 22
0.0
 32
0.0
 14
1.0000000000E+20
 24
1.0000000000E+20
 34
1.0000000000E+20
 15
-1.0000000000E+20
 25
-1.0000000000E+20
 35
-1.0000000000E+20
146
0.0
 13
0.0
 23
0.0
 33
0.0
 16
1.0
 26
0.0
 36
0.0
 17
0.0
 27
1.0
 37
0.0
 76
     0
330
1B
  0
LAYOUT
  5
26
102
{ACAD_REACTORS
330
1A
102
}
330
1A
100
AcDbPlotSettings
  1

  2
none_device
  4

  6

 40
0.0
 41
0.0
 42
0.0
 43
0.0
 44
0.0
 45
0.0
 46
0.0
 47
0.0
 48
0.0
 49
0.0
140
0.0
141
0.0
142
1.0
143
1.0
 70
   688
 72
     0
 73
     0
 74
     5
  7

 75
    16
147
1.0
148
0.0
149
0.0
100
AcDbLayout
  1
Layout2
 70
     1
 71
     2
 10
0.0
 20
0.0
 11
0.0
 21
0.0
 12
0.0
 22
0.0
 32
0.0
 14
0.0
 24
0.0
 34
0.0
 15
0.0
 25
0.0
 35
0.0
146
0.0
 13
0.0
 23
0.0
 33
0.0
 16
1.0
 26
0.0
 36
0.0
 17
0.0
 27
1.0
 37
0.0
 76
     0
330
23
  0
LAYOUT
  5
22
102
{ACAD_REACTORS
330
1A
102
}
330
1A
100
AcDbPlotSettings
  1

  2
none_device
  4

  6

 40
0.0
 41
0.0
 42
0.0
 43
0.0
 44
0.0
 45
0.0
 46
0.0
 47
0.0
 48
0.0
 49
0.0
140
0.0
141
0.0
142
1.0
143
1.0
 70
  1712
 72
     0
 73
     0
 74
     0
  7

 75
     0
147
1.0
148
0.0
149
0.0
100
AcDbLayout
  1
Model
 70
     1
 71
     0
 10
0.0
 20
0.0
 11
11.0
 21
8.5
 12
0.0
 22
0.0
 32
0.0
 14
0.0
 24
0.0
 34
0.0
 15
11.0
 25
8.5
 35
0.0
146
0.0
 13
0.0
 23
0.0
 33
0.0
 16
1.0
 26
0.0
 36
0.0
 17
0.0
 27
1.0
 37
0.0
 76
     0
330
1F
331
29
  0
MLINESTYLE
  5
18
102
{ACAD_REACTORS
330
17
102
}
330
17
100
AcDbMlineStyle
  2
Standard
 70
     0
  3

 62
   256
 51
90.0
 52
90.0
 71
     2
 49
0.5
 62
   256
  6
BYLAYER
 49
-0.5
 62
   256
  6
BYLAYER
  0
ACDBPLACEHOLDER
  5
F
102
{ACAD_REACTORS
330
E
102
}
330
E
  0
ENDSEC
  0
EOF
